Song name
# A B C D E F G H I J K L M N O P Q R S T U V W X Y Z

Born From Pain - Kill It Tonight tab

-------------------------------------------------------------------------------
		    Kill It Tonight (Solo) - Born From Pain
-------------------------------------------------------------------------------

ARTIST   : Born From Pain
SONG     : Kill It Tonight
ALBUM    : In Love With The End
TABBED BY: h8urlife
C-TUNING : C-F-Bb-Eb-G-C


Verse:

C#|-----------------------------------------------------------------------13--------|
G#|---------------------------------15-14-12~-12-14-15-14-12-13~-13-15-16----16-15~-|
E#|----------11-10~-----------12-14-------------------------------------------------|
B#|----9-12~---------12-14-15-------------------------------------------------------|
F#|-7~------------------------------------------------------------------------------|
C#|---------------------------------------------------------------------------------|


C#|-------------17-15------------------17b-----15-17-15-14----14--------------------|
G#|-15-17-17-18-------18-17~----18~------------------------17----17-15-17~----------|
E#|---------------------------------------------------------------------------------|
B#|---------------------------------------------------------------------------------|
F#|---------------------------------------------------------------------------------|
C#|---------------------------------------------------------------------------------|

C#|---------------------------------------------------------------------------------|
G#|------17-15~---17-13~-----13-15--12~---------------------------------------------|
E#|---------------------------------------------------------------------------------|
B#|---------------------------------------------------------------------------------|
F#|---------------------------------------------------------------------------------|
C#|---------------------------------------------------------------------------------|

Born From Pain rulez!!!

www.myspace.com/bornfrompain

www.bornfrompain.com
Tap to rate this tab
# A B C D E F G H I J K L M N O P Q R S T U V W X Y Z