Song name
# A B C D E F G H I J K L M N O P Q R S T U V W X Y Z

Born From Pain - Judgement tab

-------------------------------------------------------------------------------
		  (Solo) Judgement - Born From Pain
-------------------------------------------------------------------------------

ARTIST   : Born From Pain
SONG     : Judgement
ALBUM    : In Love With The End
TABBED BY: h8urlife
C-TUNING : C-F-Bb-Eb-G-C





Intro and Verse:

C#|-22b~~-21~~-1818-20202020-1818-21212121--------|
G#|-----------------------------------------------|
E#|-----------------------------------------------|
B#|-----------------------------------------------| 
F#|-----------------------------------------------|
C#|-----------------------------------------------|
        


C#|-1818-1919-1818-1919-1818-1919-1818-1919-1818------------------|
G#|-----------------------------------------------17~--17b--17~---|
E#|---------------------------------------------------------------|
B#|---------------------------------------------------------------| 
F#|---------------------------------------------------------------|
C#|---------------------------------------------------------------| 




C#|----------------------------------------------18-20b~~---------|
G#|-------------------------------------17-19-20------------------|
E#|----------------------------16-17-19---------------------------|
B#|-------------------15-17-18------------------------------------| 
F#|----------13-12-10---------------------------------------------|
C#|-13-12-10------------------------------------------------------| 
    .  .  .  .  .  .        




Born From Pain rulez!!!

www.myspace.com/bornfrompain

www.bornfrompain.com
Tap to rate this tab
 
# A B C D E F G H I J K L M N O P Q R S T U V W X Y Z