Song name
# A B C D E F G H I J K L M N O P Q R S T U V W X Y Z

Born Of Osiris - Brace Legs tab

Help us improve GuitareTab! Take a short survey!
. = palm mute
/ = hammer on
s = sweep pick


------13s--12-----------13-17-15-13-12------------| Repeat many times
----15s--------13/15--15--------------13----------|
--14s----14--14-----14----------------------------|
--------------------------------------------------|
--------------------------------------------------|
--------------------------------------------------|


These are the chords over

--------------------------------------------------| x2
--------------------------------------------------|
--------------------------------------------------|
--------------------------------------------------|
--88-88-88-88-8888-8-55-55-55-55-5-77-8---00-00---|
--88-88-88-88-8888-8-55-55-55-55-5-77-8---00-00---|
                                          .. ..

i don't know the palm mute of the chords over, so figure it out
contact me creeklax21@comcast.net
Related for Brace Legs tab