Song name
# A B C D E F G H I J K L M N O P Q R S T U V W X Y Z

Born Of Osiris - Sights And Sounds tab

Use this if you want to do the rest of the song, just me the credit I deserve.
drop C

gtr. 1
----------------------------------------------------------------------------------|
----------------------------------------------------------------------------------|
--------14-------------10-------------14---------14-------------10-------------14-|
0-10-12----12-10-0-7-8----8-7-0-10-12----0-10-12----12-10-0-7-8----8-7-0-10-12----|
----------------------------------------------------------------------------------|
----------------------------------------------------------------------------------|

gtr. 2
----------------------------------------------------------------------------------|
----------------------------------------------------------------------------------|
----------------------------------------------------------------------------------|
----------------------------------------------------------------------------------|
----------------------------------------------------------------------------------|
----------------------------------------------------------------------------------|

gtr. 3
----------------------------------------------------------------------------------|
----------------------------------------------------------------------------------|
----------------------------------------------------------------------------------|
-----------------------------------------10---------------------------------------|
-----------------------------------------8----------------------------------------|
-----------------------------------------8----------------------------------------|

gtr. 1
----------------------------------------------------------------------------------|
----------------------------------------------------------------------------------|
--------14-------------10-------------14---------14-------------10-------------14-|
0-10-12----12-10-0-7-8----8-7-0-10-12----0-10-12----12-10-0-7-8----8-7-0-10-12----|
----------------------------------------------------------------------------------|
----------------------------------------------------------------------------------|

gtr. 2
10--------------------------------------------------------------------------------|
----------10-----10h11------------------------------------------------------------|
-------------------------9----9-10-9-7--------------------------------------------|
----------------------------------------------------------------------------------|
----------------------------------------------------------------------------------|
----------------------------------------------------------------------------------|

gtr. 3
----------------------------------------------------------------------------------|
----------------------------------------------------------------------------------|
----------------------------------------------------------------------------------|
0-0--------------------------------------10---------------------------------------|
0-0--------------------------------------8----------------------------------------|
0-0--------------------------------------8----------------------------------------|
. .

gtr. 1
--------------------------------------17-15-----|
--------------------------------18-17-------17--|
--------14----14-15-------17s19-----------------|
0-10-12----12-------14-15-----------------------|
------------------------------------------------|
------------------------------------------------|

gtr. 2
------------------------------------------------|
------------------------------------------------|
------------------------------------------------|
0-0---------------------------------------------|
0-0---------------------------------------------|
0-0---------------------------------------------|
. .

gtr. 1
--------------------------------------17-15-------|
--------------------------------18-17-------17----|
--------14----14-15-------17s19-------------------|
0-10-12----12-------14-15-------------------------|
--------------------------------------------------|
------------------------------------------------\-|
                                                 \
gtr. 2                                           x2
-------------------------------------------------|
-------------------------------------------------|
-------------------------------------------------|
0-0-0-0-------0-0-0-0-------------00000----------|
0-0-0-0-------0-0-0-0-------------00000----------|
0-0-0-0-------0-0-0-0-------------00000----------|
. . . .       . . . .             .....

gtr. 1
--------------------------------------17-15-----|
--------------------------------18-17-------17--|
--------14----14-15-------17s19-----------------|
0-10-12----12-------14-15-----------------------|
------------------------------------------------|
------------------------------------------------|

gtr. 2
------------------------------------------------|
------------------------------------------------|
------------------------------------------------|
10-10-10-10-10-10-10-10-10-10-10-10-10-10-10-10-|
8--8--8--8--8--8--8--8--8--8--8--8--8--8--8--8--|
8--8--8--8--8--8--8--8--8--8--8--8--8--8--8--8--|


gtr. 1
--------------------------------------17-15-----|
--------------------------------18-17-------17--|
--------14----14-15-------17s19-----------------|
0-10-12----12-------14-15-----------------------|
------------------------------------------------|
------------------------------------------------|

gtr. 2
------------------------------------------------|
------------------------------------------------|
------------------------------------------------|
5--5--5--5--5--5--5--5--5--5--5--5--5--5--5--5--|
5--5--5--5--5--5--5--5--5--5--5--5--5--5--5--5--|
5--5--5--5--5--5--5--5--5--5--5--5--5--5--5--5--|
Tap to rate this tab
 
# A B C D E F G H I J K L M N O P Q R S T U V W X Y Z