Guitaretab - guitar tabs
Song name
# A B C D E F G H I J K L M N O P Q R S T U V W X Y Z

Born Of Osiris - Abstract Art tab

This isn't exactly the whole song, but her are little parts that will help you get 
it's in drop c
Try to alternate pick on both of these things it helps, for questions ask at 
or www.myspace.com/creeklax21

The sweet little guitar soloy thing
D----------------------------------------------------|
A----------------------------------------------------|
F----------------------10-9--------------------------|
C--10-12-0-8-7---10-12-----0-10-12-0-7-0-10-12-0-8-7-|
G----------------------------------------------------|
C----------------------------------------------------|


------------------------------------------|  Repeat how ever many times needed
------------------------------------------|
---------10-9-----------------------------|
-0-10-12------0-10-12-0-7-0-10-12-0-8-7---|
------------------------------------------|
------------------------------------------|
[ Tab from: http://www.guitaretab.com/b/born-of-osiris/117710.html ]
------------------------------------------|
------------------------------------------|
------------------------------------------|
------------------------------------------|
--3-5--3-5--33-33-33-33-00-00-00-00-------|
------------33-33-33-33-00-00-00-00-------|


Here is the weird asian piano part except on guitar

-----------------------------14-13-12-11--|
----15---11-10--15-14--11-10--------------|
------------------------------------------|
-12---12------12-----12-------------------|
------------------------------------------|
------------------------------------------|


-----------------------14-13-12-11--------------|
----15--11-10--15-14---------------14-13-12-11--|
------------------------------------------------|
--12--12-----12-----12--------------------------|
------------------------------------------------|
------------------------------------------------|
Related for Abstract Art tab
Advertisement will be closed in 10 seconds