Song name
# A B C D E F G H I J K L M N O P Q R S T U V W X Y Z

Born Of Osiris - Sights And Sounds tab

TABBED BY:emperorkayvon
comment me your opinions 

GUITAR 1
D|-------------------------------------------------------|X4
A|-------------------------------------------------------|INTRO
F|-----------14-------------------10------------------14-|
C|0--10--12------12--10--0--7--8------8--7--0--10--12----|
G|-------------------------------------------------------|
C|-------------------------------------------------------|
 |                                                       |
 |GUITAR 2                                               |
D|--------------10---------------------------------------|X1
A|--------------------8-----10---------------------------|
F|----------------------------------9----9-10-9-7--5-----|
C|-------10----------------------------------------------|
G|-------8-----------------------------------------------|
C|-------8-----------------------------------------------|

GUITAR 1
D|--------------------------------------17-15-----|
A|--------------------------------18-17-------17--|X5
F|--------14----14-15-------17-19-----------------|
C|0-10-12----12-------14-15-----------------------|
G|------------------------------------------------|
C|------------------------------------------------|

D|-------------------------------------------------------------------|VERSE
A|-------------------------------------------------------------------|
F|------5-7---------------------------------5-7----------------6--7*-|
C|----------2--------------5------3-------------2----------5-8-------|
G|--4-5-------4--000-----7---0-0--5--0--4-5-------4------7-----------|
C|---------------000-5-8-----0-0-----0--------------5--8-------------|

D|---------------------------------------------------------------|
A|---------------------------------------------------------------|
F|------5-7---------------------------------5-7----------------6-|
C|----------2-------------5-------3-------------2----------5-8---|
G|--4-5-------4--000-----7---0-0--5--0--4-5-------4------7-------|
C|---------------000-5-8-----0-0-----0--------------5--8---------|

D|---------------------------------------------------------------------------------|
A|-----------------------13------13-/15--------------------------------------------|
F|---------------9--9-10----9-10--------12-14-9------------------------------------|
C|-0-10-12-0-7-8--------------------------------0h3h5p0h5h7p0h7h8p0h8h10p0h10h12p0-|
G|---------------------------------------------------------------------------------|
C|---------------------------------------------------------------------------------|

D|-------------------------------------------------------------------------------------|X4
A|-------------------------------------------------------------------------------------|BREAK
F|-------------------------------------------------------------------------------------|
C|--------------------0-3-5-0-5-7-0-7---------------0h3h5p0h5h7p0h7h8p0h8h10p0h10h12p0-|
G|000000-00-000000-00-----------------000000-00-000------------------------------------|
C|000000-00-000000-00-----------------000000-00-000------------------------------------|

D|----------------------------8-10-13-12-10-8--8h10------------17-15----15-13----13-12-|SOLO
A|--------6-8-10---8-6-5-6/10-------------------------------13-------11-------10-------|
F|----5-7-------------------------------------------9-10-12----------------------------|
C|7-8----------------------------------------------------------------------------------|
G|-------------------------------------------------------------------------------------|
C|-------------------------------------------------------------------------------------|

D|---12-10---10-8--------------------------------------------|
A|-8-------6------5-5h6-5------------------------------------|
F|------------------------5-7-5-7----------------------------|
C|--------------------------------5-7-------5/7--5------7-10-|
G|--------------------------------------3-5---------3-5------|
C|-----------------------------------------------------------|

OPEN NOTES THE WHOLE TIME....

PIANO PART
D|----------10--------10-------------------------10-------10-----------|
A|--10--13---------10------13----10-----10--13--------10-------13---10-|
F|---------------------------------------------------------------------|
C|---------------------------------------------------------------------|
G|---------------------------------------------------------------------|
C|---------------------------------------------------------------------|

GUITAR 1
D|---------------------------------------------------------|
A|---------------------------------------------------------|
F|12----14----------------10----9--------------------------|
C|------------14----10-------------------------------------|
G|----------------------------------12----13---------------|
C|---------------------------------------------------------|
 |                                                         |
 |GUITAR 2                                                 |
D|---------------------------------------------------------|
A|---------------------------------------------------------|
F|9----10--------------------------------------------------|
C|------------10----7-----12----10---8----10---------------|
G|---------------------------------------------------------|
C|---------------------------------------------------------|
                                                           
D|--------------------------------------------------------------|\
A|--------------------------------------------------------------| \
F|--------------------------------------------------------------|  \
C|10-10--10-10---10---10-10--10---10-10--10-10---10---10-10--10-|   \
G|-8--8---8--8----8----8--8---8----8--8---8--8----8----8--8---8-|    \
C|-8--8---8--8----8----8--8---8----8--8---8--8----8----8--8---8-|    /X3
                                                                    /
D|-----------------------------------------------------------|     /
A|-----------------------------------------------------------|    /
F|-----------------------------------------------------------|   /        
C|-7-7--7-7--7---7-7--7---0-0--0-0--0---0-0--0---------------|  / 
G|-5-5--5-5--5---5-5--5---0-0--0-0--0---0-0--0---------------| /
C|-5-5--5-5--5---5-5--5---0-0--0-0--0---0-0--0---------------|/

Tap to rate this tab
# A B C D E F G H I J K L M N O P Q R S T U V W X Y Z