Song name
# A B C D E F G H I J K L M N O P Q R S T U V W X Y Z

Born Of Osiris - Live Like Im Real tab

-------------------------------------------------------------------------------
			     Live like Im Real - Born of Osiris
-------------------------------------------------------------------------------
Tabbed by:Epigone
Email:7untiltheend7@live.com

Tuning:Drop C

e|-------------------------------------10-/12-8-\5-------------------------------------|
B|----------------------------8-h10----------------------------------------------------|
G|-----------5-h7-7-h9-9---------------------------------------------------------------|
D|-5-h7-7------------------------------------------------------------------------------|
A|-------------------------------------------------------------------------------------|
E|-------------------------------------------------------------------------------------|

e|------------------------------------------------------|
B|-10-p8-------10-p8-------10-p8-------10-p8------------|
G|---------9-p7---------9-p7---------9-p7---------9-p7--|
D|------------------------------------------------------|
A|------------------------------------------------------|
E|------------------------------------------------------|

e|---------------------------------------------------|
B|-6-h8-------6-h8-------6-h8-------6-h7-------------|
G|-------7-h9--------7h9--------7h9--------7-h9-/10--|
D|---------------------------------------------------|
A|---------------------------------------------------|
E|---------------------------------------------------|
Tap to rate this tab
 
# A B C D E F G H I J K L M N O P Q R S T U V W X Y Z