Song name
# A B C D E F G H I J K L M N O P Q R S T U V W X Y Z

Born Of Osiris - The New Reign tab

So I took one for the team and exported the guitar pro file into text form. Slight
editing was done so the rhythms might be slightly off sync for parts of it. All
credit goes to paleonluna. Enjoy!


     Q    E     E  E    E   E  E  E
D||----------|-----------------------|
A||----------|-----------------------|
F||----------|-----------------------|
C||----------|-----------------------|
G||----------|--1--0--<>3b--1--0--0--|
C||----------|--1--0--------1--0--0--|


                      |-3-|
  S  S S  S S  S S  S S S S S  S  S  S  S S  S  S  S  S  S S  S  S
-------------------------------------------------------------------|
-------------------------------------------------------------------|
--8-11-8-----------------------------------------------------------|
---------10-7-10-8-11-8-7-0------10-13-10-0-13-16-15-16-15-0-16-19-|
----------------------------9-12-----------------------------------|
-------------------------------------------------------------------|


---------------------------------------------------------------------|
---------------------------------------------------------------------|
---------------------------------------------------------------------|
---------------------------------------------------------------------|
--0--9h12p9-9h12p9-0--12h15p12-0--9h12p9-9h12p9-0--9h12p9 0 12h15p12-|
--0----------------0-----------0----------------0---------0----------|

     |---3--| |---3--|
  E  S   S  S S   S  S E   E   E   E     E
--------------------------16-----------------|
------------------------------15-------------|
----------------------------------15--<>15\--|
---------------------------------------------|
--0--9h-12p-9-9h-12p-9-0---------------------|
--0--------------------0---------------------|


  E  E  E  E  E  E  E  E  E  E  S S S S S S S S S S E    E   E
----------------------------------------------------------------|
--------------5-------------------------------------------------|
--------------8-------------------------------------------------|
----------------------------------------------------------------|
--0-----0--0-----0--1--0--4--0----------------------0--<>5b--0--|
--0-----0--0-----0--1--0--4--0--4-4-6-6-7-7-6-6-4-4-0--------0--|


                      |-3-|
  S  S S  S S  S S  S S S S S  S  S  S  S S  S  S  S  S  S S  S  S
-------------------------------------------------------------------|
-------------------------------------------------------------------|
--8-11-8-----------------------------------------------------------|
---------10-7-10-8-11-8-7-0------10-13-10-0-13-16-15-16-15-0-16-19-|
----------------------------9-12-----------------------------------|
-------------------------------------------------------------------|


  E  E  E  E  E     E  E  Q.        H        E     H        E
-----------------|---------------|--------------|--------------|
-----------------|---------------|--------------|--------------|
-----------------|---------------|--------------|--------------|
-----------------|---------------|--------------|--------------|
--0--0-----0-----|--0--0---------|--------------|--------------|
--0--0-----0-----|--0--0---------|--------------|--------------|


   S  S  S  S  S  S  S  S  S  S     S  S  S  S  S  S  S  S  S  S
--------------------------------|--------------------------------|
--------------------------------|--------------------------------|
--15-18-15----15-18-15----------|--15-18-15----15-18-15----------|
-----------17----------17-14-17-|-----------17----------17-14-17-|
--------------------------------|--------------------------------|
--------------------------------|--------------------------------|


   S  S  S  S  S  S  S  S  S  S     S  S  S  S  S  S  S  S  S  S
--------------------------------|--------------------------------|
--------------------------------|--------------------------------|
--15-18-15----15-18-15----------|--15-18-15----15-18-15----------|
-----------17----------17-14-17-|-----------17----------17-14-17-|
--------------------------------|--------------------------------|
--------------------------------|--------------------------------|


   S  S  S  S  S  S  S  S  S  S    S S E  E  E  E  E  E  E
--------------------------------|---------------------------|
--------------------------------|---------------------------|
--15-18-15----15-18-15----------|---------------------------|
-----------17----------17-14-17-|------------------2--------|
--------------------------------|--0-0-1--0--4--0--2--3--1--|
--------------------------------|--0-0-1--0--4--0--2--3--1--|


  W                   H        H            H         H
-------------------|--------------------|----------------------|
-------------------|--------------------|----------------------|
-------------------|--6--------8--------|--10--------12--------|
-------------------|--------------------|----------------------|
--0----------------|--------------------|----------------------|
--0----------------|--------------------|----------------------|


----------------------|----------------------|------------------------------|
----------------------|----------------------|------------------------------|
--14--------15--------|--17------------15----|--18----17--15----15-17-15-14-|
----------------------|----------------------|------------------------------|
----------------------|----------------------|------------------------------|
----------------------|----------------------|------------------------------|


   W                   Q.      E  E  E   E   E     Q.     E   E   E   E  E
--------------------|---------------------------|---------9-----------------|
--------------------|---------------------------|------------11-------------|
--------------------|-------------------10s--6--|----------------10---------|
--15----------------|----------------8----------|--------------------11--8--|
--------------------|-------------8-------------|---------------------------|
--------------------|---------11----------------|---------------------------|


                       |--3--|
   E   E   E   E   E   S  S  S  E  E     S S S S S S S S S S S  S S S S S
------------------13--11-13-11--------|-----------------------------------|
----------11--14---------------13-----|-----------------------------------|
------10------------------------------|-----------------------------------|
--11----------------------------------|----------------------7-10-7-------|
--------------------------------------|--3-0-----0-3-6-0-6-9--------9-0-3-|
--------------------------------------|------1-4--------------------------|


  S S S S S S S S E  E  E    E      S S S S S S S S S S S  S S S S S
---------------------------------|-----------------------------------|
---------------------------------|-----------------------------------|
---------------------------------|-----------------------------------|
---------------------------------|----------------------7-10-7-------|
--6-3-0-----3-6-3-0--1--0--<>3b--|--3-0-----0-3-6-0-6-9--------9-0-3-|
--------1-4-------0--1--0--------|------1-4--------------------------|


  S S S S S S S S E  E  E  E     S S S S S S S S S S S  S S S S S
------------------------------|-----------------------------------|
------------------------------|-----------------------------------|
------------------------------|-----------------------------------|
------------------------------|----------------------7-10-7-------|
--6-3-0-----3-6-3-6-----------|--3-0-----0-3-6-0-6-9--------9-0-3-|
--------1-4----------6--7--4--|------1-4--------------------------|


  S S S S S S S S E  E  E    E      S S S S S S S S S S S  S S S S S
---------------------------------|-----------------------------------|
---------------------------------|-----------------------------------|
---------------------------------|-----------------------------------|
---------------------------------|----------------------7-10-7-------|
--6-3-0-----3-6-3-0--1--0--<>3b--|--3-0-----0-3-6-0-6-9--------9-0-3-|
--------1-4-------0--1--0--------|------1-4--------------------------|


  S S S S S S S S E  E  E  E     H           E  E  S S S H        S
------------------------------|-----------|-------------------------|
------------------------------|-----------|-------------------------|
------------------------------|-----------|-------------------------|
------------------------------|-----------|-------------------------|
--6-3-0-----3-6-3-0--1--0-----|-----------|-----0--0-0-0------------|
--------1-4-------0--1--0-----|-----------|-----0--0-0-0------------|


                            |-3-|
  S S S S S S S E.  S S S S S S S    E  E  E  E   S  S  S  S S  S S  S
----------------------------------|------------------------------------|
----------------------------------|--------------11-14-11--------------|
----------------------------------|-----------------------12-9-12-9----|
----------------------------------|---------------------------------11-|
--0-0---0---0-0-----0-0-0-0-0-0-0-|--0--0--0---------------------------|
--0-0---0---0-0-----0-0-0-0-0-0-0-|--0--0--0---------------------------|


  S  S S  S S  S S  S S  S S S E  E       E   E  S S S H        S
-------------------------------------|----------------------------|
-------------------------------------|----------------------------|
-------------------------------------|----------------------------|
--8-11-8-----------------------------|----------------------------|
---------10-7-10-7-------------0--0--|--<>7b--0--0-0-0------------|
-------------------11-8-11-8-0-0--0--|--------0--0-0-0------------|


                            |-3-|
  S S S S S S S E.  S S S S S S S    E  E  E  E  E   E  E   E
----------------------------------|----------------------------|
----------------------------------|----------------------------|
----------------------------------|------------------------10--|
----------------------------------|---------------------7------|
--0-0---0---0-0-----0-0-0-0-0-0-0-|--0--0--0-----8--10---------|
--0-0---0---0-0-----0-0-0-0-0-0-0-|--0--0--0-------------------|


  E  E   E  E  E   E   E  E     E  E  S S S H        S
-----------------------------|-------------------------|
-----------------------------|-------------------------|
--9--7-----------------------|-------------------------|
--------10--8--7--10---------|-------------------------|
----------------------10--7--|--8--0--0-0-0------------|
-----------------------------|-----0--0-0-0------------|


                            |-3-|
  S S S S S S S E.  S S S S S S S    E  E  E  E  H           W
----------------------------------|-----------------------|-----------------|
----------------------------------|-----------------------|-----------------|
----------------------------------|-----------------------|-----------------|
----------------------------------|-----------------------|-----------------|
--0-0---0---0-0-----0-0-0-0-0-0-0-|--0--0--0--------------|-----------------|
--0-0---0---0-0-----0-0-0-0-0-0-0-|--0--0--0--------------|-----------------|


                                                      |-3-|
  E  E  S S S H        S    S S S S S S S E.  S S S S S S S
-------------------------|----------------------------------|
-------------------------|----------------------------------|
-------------------------|----------------------------------|
-------------------------|----------------------------------|
-----0--0-0-0------------|--0-0---0---0-0-----0-0-0-0-0-0-0-|
-----0--0-0-0------------|--0-0---0---0-0-----0-0-0-0-0-0-0-|


                      ^                ^
                      |-----3----|     |----3----|
  W.                  Q     Q    Q     Q    Q    Q
-------------------|----------------------------------|
-------------------|----------------------------------|
-------------------|------------------10----9----7----|
-------------------|-------------7--------------------|
--0----------------|--8----10-------------------------|
--0----------------|----------------------------------|


   ^               ^                  ^                ^
   |----3----|     |-----3----|       |-----3----|     |----3----|
   Q    Q    Q     Q     Q    Q       Q     Q    Q     Q    Q    Q
-----------------------------------|----------------------------------|
-----------------------------------|----------------------------------|
-----------------------------------|------------------10----9----7----|
--10----8----7----10---------------|-------------7--------------------|
------------------------10----7----|--8----10-------------------------|
-----------------------------------|----------------------------------|


                   ^              ^                ^
  |------3------|                 |-----3----|     |----3----|
  Q    Q    S S E  E  E  E  E     Q     Q    Q     Q    Q    Q
-------------------------------|----------------------------------|
-------------------------------|----------------------------------|
--6----7----9-9-9--9--6--------|------------------10----9----7----|
-------------------------8--5--|-------------7--------------------|
-------------------------------|--8----10-------------------------|
-------------------------------|----------------------------------|


   ^               ^                  ^                ^
   |----3----|     |-----3----|       |-----3----|     |----3----|
   Q    Q    Q     Q     Q    Q       Q     Q    Q     Q    Q    Q
-----------------------------------|----------------------------------|
-----------------------------------|----------------------------------|
-----------------------------------|------------------10----9----7----|
--10----8----7----10---------------|-------------7--------------------|
------------------------10----7----|--8----10-------------------------|
-----------------------------------|----------------------------------|


                   ^              ^                ^
  |------3------|                 |-----3----|     |----3----|
  Q    Q    S S E  E  E  E  E     Q     Q    Q     Q    Q    Q
-------------------------------|----------------------------------|
-------------------------------|----------------------------------|
--6----7----9-9-9--9--6--------|------------------10----9----7----|
-------------------------8--5--|-------------7--------------------|
-------------------------------|--8----10-------------------------|
-------------------------------|----------------------------------|


   ^               ^                  ^                ^
   |----3----|     |-----3----|       |-----3----|     |----3----|
   Q    Q    Q     Q     Q    Q       Q     Q    Q     Q    Q    Q
-----------------------------------|----------------------------------|
-----------------------------------|----------------------------------|
-----------------------------------|------------------10----9----7----|
--10----8----7----10---------------|-------------7--------------------|
------------------------10----7----|--8----10-------------------------|
-----------------------------------|----------------------------------|


                   ^              ^                ^
  |------3------|                 |-----3----|     |----3----|
  Q    Q    S S E  E  E  E  E     Q     Q    Q     Q    Q    Q
-------------------------------|----------------------------------|
-------------------------------|----------------------------------|
--6----7----9-9-9--9--6--------|------------------10----9----7----|
-------------------------8--5--|-------------7--------------------|
-------------------------------|--8----10-------------------------|
-------------------------------|----------------------------------|


   ^               ^                  ^                ^
   |----3----|     |-----3----|       |-----3----|     |----3----|
   Q    Q    Q     Q     Q    Q       Q     Q    Q     Q    Q    Q
-----------------------------------|----------------------------------|
-----------------------------------|----------------------------------|
-----------------------------------|------------------10----9----7----|
--10----8----7----10---------------|-------------7--------------------|
------------------------10----7----|--8----10-------------------------|
-----------------------------------|----------------------------------|


                   ^
  |------3------|
  Q    Q    S S E  E  E  E  E
-------------------------------|
-------------------------------|
--6----7----9-9-9--9--6--------|
-------------------------8--5--|
-------------------------------|
-------------------------------|


   S  S  S  S  S  S  S  S  S  S  S  S  S  S  S  S
--------------------------------------------------|
--------13-15-13----------13-17-13----------13-15-|
-----14----------14----14----------14----14-------|
--15----------------15----------------15----------|
--------------------------------------------------|
--------------------------------------------------|


   S  S  S  S  S  S  S  S  S  S  S  S  S  S  S  S
--------------------------------------------------|
--13----------13-17-13----------13-15-13----------|
-----14----14----------14----14----------14----14-|
--------15----------------15----------------15----|
--------------------------------------------------|
--------------------------------------------------|


   S  S  S  S  S  S  S  S  S  S  S  S  S  S  S  S
--------------------------------------------------|
--------11-13-11----------11-14-11----------11-13-|
-----12----------12----12----------12----12-------|
--14----------------14----------------14----------|
--------------------------------------------------|
--------------------------------------------------|


   S  S  S  S  S  S  S  S  S  S  S  S  S  S  S  S
--------------------------------------------------|
--11----------11-14-11----------11-13-11----------|
-----12----12----------12----12----------12----12-|
--------14----------------14----------------14----|
--------------------------------------------------|
--------------------------------------------------|


   S  S  S  S  S  S  S  S  S  S  S  S  S  S  S  S
--------------------------------------------------|
--------13-15-13----------13-17-13----------13-15-|
-----14----------14----14----------14----14-------|
--15----------------15----------------15----------|
--------------------------------------------------|
--------------------------------------------------|


   S  S  S  S  S  S  S  S  S  S  S  S  S  S  S  S
--------------------------------------------------|
--13----------13-17-13----------13-15-13----------|
-----14----14----------14----14----------14----14-|
--------15----------------15----------------15----|
--------------------------------------------------|
--------------------------------------------------|


   S  S  S  S  S  S  S  S  S  S  S  S  S  S  S  S
--------------------------------------------------|
--------11-13-11----------11-14-11----------11-13-|
-----12----------12----12----------12----12-------|
--14----------------14----------------14----------|
--------------------------------------------------|
--------------------------------------------------|


   S  S  S  S  S  S  S  S  S  S  S  S  S  S  S  S
--------------------------------------------------|
--11----------11-14-11----------11-13-11----------|
-----12----12----------12----12----------12----12-|
--------14----------------14----------------14----|
--------------------------------------------------|
--------------------------------------------------|


  S S E  S S E  S  S S  S S S E     S S E  S S E   S  S  S  S S  S S  S
---------------------------------|--------------------------------------|
---------------------------------|----------------11-14-11--------------|
---------------------------------|-------------------------12-9-12-9----|
---------------------------------|-----------------------------------11-|
--0-0-0--0-0-0--1h-4-1h-4-0-0-0--|--0-0-0--0-0-0------------------------|
--0-0-0--0-0-0------------0-0-0--|--0-0-0--0-0-0------------------------|


  S S E  S S E  S  S S  S S S E      S  S  S  S S  S S  S S  S S  S S  S S  S
-------------------------------|--------------------------------------------|
-------------------------------|--11-14-11----------------------------------|
-------------------------------|-----------12-9-12-9------------------------|
-------------------------------|---------------------11-8-11-8--------------|
--0-0-0--0-0-0--1h4-1h4-0-0-0--|-------------------------------10-7-10-7----|
--0-0-0--0-0-0------------0-0-0|-----------------------------------------11-|


  S S E  S S E  S  S S  S S S E     S S E  S S E   S  S  S  S S  S S  S
---------------------------------|--------------------------------------|
---------------------------------|----------------11-14-11--------------|
---------------------------------|-------------------------12-9-12-9----|
---------------------------------|-----------------------------------11-|
--0-0-0--0-0-0--1h-4-1h-4-0-0-0--|--0-0-0--0-0-0------------------------|
--0-0-0--0-0-0------------0-0-0--|--0-0-0--0-0-0------------------------|


  S S E  S S E  S  S S  S S S E      S  S  S  S S  S S  S S  S S  S S  S S  S
-------------------------------|--------------------------------------------|
-------------------------------|--11-14-11----------------------------------|
-------------------------------|-----------12-9-12-9------------------------|
-------------------------------|---------------------11-8-11-8--------------|
--0-0-0--0-0-0--1h4-1h4-0-0-0--|-------------------------------10-7-10-7----|
--0-0-0--0-0-0------------0-0-0|-----------------------------------------11-|


  E  H        Q    E
----------------------||
----------------------||
----------------------||
----------------------||
--0-------------------||
--0-------------------||


Duration Legend
---------------
W - whole
H - half
Q - quarter
E - 8th
S - 16th
T - 32nd
X - 64th
. - note dotted
|-n-|  - n-tuplets


Tablature Legend
----------------
L - tied note
x - dead note
g - grace note
(n) - ghost note
> - accentuded note
NH - natural harmonic
AH - artificial harmonic
TH - tapped harmonic
SH - semi harmonic
PH - pitch harmonic
h - hammer on
p - pull off
b - bend
br - bendRelease
pb - preBend
pbr - preBendRelease
brb - bendReleaseBend
\n/ - tremolo bar dip
\n - tremolo bar dive
-/n - tremolo bar Release up
/n\ - tremolo bar inverted dip
/n - tremolo bar return
-\n - tremolo bar Release down
S - shift slide
s - legato slide
/ -  slide into from below or out of upwards
\ -  slide into from above or out of downwards
~ - vibrato
W - wide vibrato
tr - trill
TP - tremolo picking
T - tapping
S - slap
P - pop
< - fade in
^ - brush up
v - brush down
Tap to rate this tab
 
# A B C D E F G H I J K L M N O P Q R S T U V W X Y Z