Born Of Osiris - Empires Erased tab

Empires erased - Born of Osiris
-----------------------------------------------------------------
Tabbed by:Jennahfacex13
Email:
Tuning:drop C

E|---------------------------------------------------------------|
B|---------------------------------------------------------------|
G|---------------------------------------------------------------|
D|---------------------------------------------------------------|
A|----------------------2----------------------------1-----------|
E|1-2-2-1--0-1-0-1--2-1---1--0-1-2--2-1--0-1--0-1--2---2-1-------|

E|---------------------------------------------------------------|
B|---------------------------------------------------------------|
G|---------------------------------------------------------------|
D|---------------------------------------------------------------|
A|------------------------1------------------------------1-------|
E|0-1-2--2-1--0-1--0-1--2---2-1--0-1-2--2-1--0-1--0-1--2---2-1---|

E|---------------------------------------------------------------|
B|---------------------------------------------------------------|
G|---------------------------------------------------------------|
D|---------------------------------------------------------------|
A|------------------------1------------------------------1-------|
E|0-1-2--2-1--0-1--0-1--2---2-1--0-1-2--2-1--0-1--0-1--2---2-1---|

E|---------------------------------------------------------------|
B|---------------------------------------------------------------|
G|---------------------------------------------------------------|
D|7-------------------------------------------------------------5|
A|--6--5--5--7-----------------3----------------1------------5-4-|
E|--------------8--7--0---0------2--1--0--1--0-----2-1-0-5--4----|

E|---------------------------------------------------------------|
B|---------------------------------------------------------------|
G|---------------------------------------------------------------|
D|--7----------------7---------------7---------------------------|
A|-----6--5-------------6--5------------6--5-------5-------------|
E|0----------0---0------------0--0-----------0--0-----6----------|

E|---------------------------------------------------------------|
B|---------------------------------------------------------------|
G|---------------------------------------------------------------|
D|---------------------------------------------------------------|
A|---5----------------5---------5----------------5------5--------|
E|0-----6--5--0--0------6--0-------6--5---0--0-----6--0---6-5-0--|

E|---------------------------------------------------------------|
B|---------------------------------------------------------------|
G|-------------------------------------------------------12-15---|
D|-------------------------------------------------11-14---------|
A|---5--------5-----------10-12-10---9-10--12--13----------------|
E|0-----6--0-----6-5-0-0-----------------------------------------|

E|---------------------------------------------------------------|
B|14-17-14-------------------------------------------------------|
G|---------15-12-------------------------------------------------|
D|---------------------------------------------------------------|
A|-------------------4----------1---------------4----------------|
E|----------------1----0-1---4---4--0---1--4--1-----0-1-4-1------|

E|---------------------------------------------------------------|
B|---------------------------------------------------------------|
G|---------------------------------------------------------------|
D|---------------------------------------------------------------|
A|4----4----------4------------3------------3-------------3------|
E|--1----0-1-4-1-----0--1--4-------0-1-4-1----0-1-0--1-4-1-------|

E|---------------------------------------------------------------|
B|---------------------------------------------------------------|
G|---------------------------------------------------------------|
D|---------------------------------------------------------------|
A|----------3---------1------------3-----3----------3------------|
E|0-1-4-1-----0-1-4-----3-0-1--4-1---1-----0-1-4--1---0-1--------|


E|---------------------------------------------------------------|
B|---------------------------------------------------------------|
G|12-12-12-12-12-12-12-12-12-12-12-12----------------------------|
D|x--x--x--x--x--x--x--x--x--x--x--x-----------------------------|
A|12-12-12-12-12-12-12-12-12-12-12-12----------------------------|
E|---------------------------------------------------------------|

E|-------------------10--8-------------------12--8---------------|
B|----------10--8------------------------------------------10----|
G|------------------------------10--9----------------------------|
D|---------------------------------------------------------------|
A|0-0-0-0--------------------------------------------------------|
E|0-0-0-0----------0----------0---------0--------------0---------|

E|------10-8------------------12-8-------------------------------|
B|8------------------------------------10-8----------------------|
G|-------------10-9--------------------------------9-10----------|
D|---------------------------------------------------------------|
A|---------------------------------------------------------------|
E|---0---------0--------0-------------0---------0----------------|

E|---10------------------------8---------------------------------|
B|--------8-10---------------------------------------------------|
G|----------------9-10--------------10-9----------------9-10-----|
D|------------------------------------------10-------------------|
A|----------------------------------------------10--12-----------|
E|0--------------------------------------------------------------|

E|---------------------------------------------------------------|
B|--------10-----------------------------------------------------|
G|---------------------------------------------------------------|
D|12-10----------------------------------------------------------|
A|---------------------------------------------------------------|
E|---------------------------------------------------------------|


Tablature Notation

h - hammer on 
p - pull off 
b - bend string up
r - release bend
/ - slide up
\ - slide down
v - vibrato (or ~)
t - right hand tap
x - play 'note' with heavy muting

Tap to rate this tab
 
# A B C D E F G H I J K L M N O P Q R S T U V W X Y Z