Born Of Osiris - Follow The Signs tab

Since I know noone else will actually tab it out,I thought I'd be the first to.I must 
also say I know some of you would say (and already have) "that isn't in Drop D."
For a seven string guitar,I know this.
This song is intended to be on a seven string guitar.
But the solo itself for a six string guitar would be tuned to Drop D.
There is only one video tutorial and I learned it by ear and some by watching.Here you go.Enjoy!

po=pull off  ho=hammer on  ft=finger tap (opposite hand)  v=vibrato

*You do not absolutely HAVE TO do the right hand finger tap and instead could use your 
pinky,but the finger tapping just looks more flashy.


e/-17po13-------------------------------13-21-17--17------17-21------------|
B/-------15ho18-15--15----------------15--------18--18--18-----18----------|
G/----------------14--14---14-------14----------------17---------17--------|
D/-----------------------15--15---15-------------------------------19--11--|
A/------------------------------17-----------------------------------20--12|
D/-------------------------------------------------------------------------|

e/-------9-12-17-13------13-17-13-19-13-17-13----------13------------------|
B/-----10----------14--14--------------------14--13--12--12-14--11---------|
G/----9--------------15------------------------15--14---------11--10-11-7--|
D/--12-------------------------------------------------------------------8-|
A/11-----------------------------------------------------------------------|
D/-------------------------------------------------------------------------|

e/---------------------16-20-16-21-16--------------17ho20ho21ft;po20po17---|
B/----------14-18-14-18--------------18----------18---------------18-------|
G/--14-17-14---------------------------17------17-------------------17-----|
D/15-------------------------------------18--19-----------------------19---|
A/-----------------------------------------20---------------------------20-|
D/-------------------------------------------------------------------------|

e/13-15-18-13-15-----------------9-11-12-15-13-12----------------------|
B/---------------18-14/10-9-11-12----------------15-13-12--------------|
G/-------------------------------------------------------12-11-9-------|
D/--------------------------------------------------------------12-11-9|
A/---------------------------------------------------------------------|
D/---------------------------------------------------------------------|

e/----------------------12-14-15--------13-15-16--------14-16-17|
B/--------------12-14-15--------13-15-16--------14-16-17--------|
G/-------9-11-12------------------------------------------------|
D/9-11-12-------------------------------------------------------|
A/--------------------------------------------------------------|
D/--------------------------------------------------------------|

e/20-18-17-15-17-18-17v|
B/---------------------|
G/---------------------|
D/---------------------|
A/---------------------|
D/---------------------|
Tap to rate this tab
 
# A B C D E F G H I J K L M N O P Q R S T U V W X Y Z