Song name
# A B C D E F G H I J K L M N O P Q R S T U V W X Y Z

Born Of Osiris - Machine tab

Born of Osiris - Machine
Drop C tuning
Tabbed by Lorcan Ward

Check out my Cover video:
http://www.youtube.com/watch?v=9nMGNUdmfPI

Contact me at:
https://www.facebook.com/LorcanWardGuitar

Lead Guitar:
|--------------13h17p13----------13h17t18p17p13-----|
|-----------15----------15----15----------------15--|
|--------14----------------14-----------------------|
|-----15--------------------------------------------|
|--17-----------------------------------------------|
|---------------------------------------------------|
|---------------------------------------------------|

|--------13-17-15-13--------------------------------|
|-----15-------------17-15-14-----------------------|
|--14-------------------------15-14-----------------|
|-----------------------------------17-15-14--------| X 8
|--------------------------------------------17-16--|
|---------------------------------------------------|
|---------------------------------------------------|
 
 
Harmony Guitar:
|--------------13h17p13----------13h17t18p17p13-----|
|-----------15----------15----15----------------15--|
|--------14----------------14-----------------------|
|-----15--------------------------------------------|
|--17-----------------------------------------------|
|---------------------------------------------------|
|---------------------------------------------------|
 

|--------13-17-15-13--------------------------------|
|-----15-------------17-15-14-----------------------|
|--14-------------------------15-14-----------------|
|-----------------------------------17-15-14--------| X 4
|--------------------------------------------17-16--|
|---------------------------------------------------|
|---------------------------------------------------|
Tap to rate this tab
# A B C D E F G H I J K L M N O P Q R S T U V W X Y Z