Song name
# A B C D E F G H I J K L M N O P Q R S T U V W X Y Z

Born Of Osiris - Illusionist tab

Born of Osiris - Illusionist
Tuning Drop G - D A F C G D G
Tabbed by Lorcan Ward

Contact me at:
https://www.facebook.com/LorcanWardGuitar

Watch my cover video please:
http://www.youtube.com/watch?v=6WiBiQHAzEI

Guitar Solo starts at 2:19

Lead One:
|-------------12-17---16---13h16p13-12h13p12---------------------------|
|----------13--------------------------------15h17p15-13h15p13---------|
|-------14-------------------------------------------------------------|
|----------------------------------------------------------------------|
|----------------------------------------------------------------------|
|----------------------------------------------------------------------|
|--0-------------------------------------------------------------------|
|                                                                      |
|-------------17-20---19---17h20p17-16h17p16-13h16p13-12h13p12---------|
|----------17----------------------------------------------------------|
|-------17-------------------------------------------------------------|
|----------------------------------------------------------------------|
|----------------------------------------------------------------------|
|----------------------------------------------------------------------|
|--0-------------------------------------------------------------------|

|-----------------------17--19--20--19--17-----------------------------|
|-----------17--18--21----------------------21-----18-----17~~--\------|
|-------19-------------------------------------------------------------|
|----------------------------------------------------------------------|
|----------------------------------------------------------------------|
|----------------------------------------------------------------------|
|--0-------------------------------------------------------------------|
|                                                                      |
|-----------------------20--22--24--22--20-----------------------------|
|-----------21--22--24----------------------24-----22-----21~~--\------|
|-------22-------------------------------------------------------------|
|----------------------------------------------------------------------|
|----------------------------------------------------------------------|
|----------------------------------------------------------------------|
|--0-------------------------------------------------------------------|


Play Lead One 5 times


Lead Two:
|-----------17h19p17--------------------------------------------------------|
|--------17----------21h22p21-18h21p18-17h18p17-----------------------------|
|-----17----------------------------------------19h21p19-17h19p17-16h17p16--|
|--19-----------------------------------------------------------------------|
|---------------------------------------------------------------------------|
|---------------------------------------------------------------------------|
|---------------------------------------------------------------------------|
|                                                                           |
|--------17-20h22p20-19h20p19-17h19p17--------------------------------------|
|-----17-------------------------------21h22p21-18h21p18-17h18p17-----------|
|--17-------------------------------------------------------------19h21p19--|
|---------------------------------------------------------------------------|
|---------------------------------------------------------------------------|
|---------------------------------------------------------------------------|
|---------------------------------------------------------------------------|

Play Lead Two 4 times

|------------------------|
|------------------------|
|------------------------|
|---19~~---\----\--------|
|------------------------|
|------------------------|
|------------------------|
|                        |
|------------------------|
|------------------------|
|---17~~---\----\--------|
|------------------------|
|------------------------|
|------------------------|
|------------------------|
Tap to rate this tab
# A B C D E F G H I J K L M N O P Q R S T U V W X Y Z