Song name
# A B C D E F G H I J K L M N O P Q R S T U V W X Y Z

Born Ruffians - Kurt Vonnegut tab

-------------------------------------------------------------------------------
			    kurt vonnegut - born ruffians
-------------------------------------------------------------------------------
Tabbed by: alvaro velosa
Email: alvaro.velosa@fiu.edu

the whole song is basically three chords listen to find the rhythms.

Tuning:

E|--5---5---1------------------------------------------------------------------|
B|--6---5---1------------------------------------------------------------------|
G|--7---5---2------------------------------------------------------------------|
D|--7---5---3------------------------------------------------------------------|
A|--5-------3------------------------------------------------------------------|
E|-----------------------------------------------------------------------------|
Tap to rate this tab
# A B C D E F G H I J K L M N O P Q R S T U V W X Y Z