Song name
# A B C D E F G H I J K L M N O P Q R S T U V W X Y Z

Born Ruffians - Foxes Mate For Life tab

Help us improve GuitareTab! Take a short survey!
Might not be 100% accurate but pretty good I think. I figured this out by ear.


listen to song for strumming these are the chords
intro - guitar 1
e--------------------|
B-7--11--8--8--10----|
G-5--10--9--9--8-----|
D--------9--7--10----|
A--------------------|
E--------------------|

guitar 2
e------x---12--|
B-12---8---12--|
G-12---9---12--|
D-12---9---11--|
A-10--(7)------|
E--------------|


the verse is the same as the guitar 2 intro

chorus
e--------8--7--5-|
B-12--8--5--7--5-|
G-12--9--5--7--5-|
D-12--9--5-------|
A-10--7----------|
E----------------|

yeah thats pretty much it the whole song, theres some changes but if you listen to the 
you can figure them out.
Related for Foxes Mate For Life tab