Song name
# A B C D E F G H I J K L M N O P Q R S T U V W X Y Z

Born Ruffians - Little Garcon tab

------------------------------------------------------------------------
			     little garcon - born ruffians
------------------------------------------------------------------------
Tabbed by:loren james
Email:modestmoose45yahoo.com

Tuning:standard

this is the main guitar part through-out the song

      v ^ v    v ^ v    v ^ v    v ^ v    v ^ v           v ^ v
e|----2-2-2----2-2-2----2-2-2----2-2-2----2-2-2-----------2-2-2-----------|
B|----3-3-3----3-3-3----3-3-3----3-3-3----3-3-3-----------3-3-3-----------|
G|----2-2-2----2-2-2----2-2-2----2-2-2----2-2-2-----------2-2-2-----------|
D|-0--------4------------------0-----------------------0------------------|
A|-------------------2------------------4------4-2-0-2--------------------|
E|------------------------------------------------------------------------|

 bass riff if you want to play it when the time comes(it repeats)
e|------------------------------------------------------------------------|
B|------------------------------------------------------------------------|
G|------------------------------------------------------------------------|
D|------------------------------------------------------------------------|
A|------------------------------------------------------------------------|
E|---5-7-4-0-5-7-9-9-9p7/5-5-5-7-9-0--------------------------------------|

 ending chords
     G    A
e|---3----5---------------------------------------------------------------|
B|---3----5---------------------------------------------------------------|
G|---4----6---------------------------------------------------------------|
D|---5----7---------------------------------------------------------------|
A|---5----7---------------------------------------------------------------|
E|---3----5---------------------------------------------------------------|

thats it just listen to the song to get down the rythem

| ^  strum up
| v strum down
| h  hammer-on
| p  pull-off
| ~  vibrato
| +  harmonic
| x  Mute note
Tap to rate this tab
 
# A B C D E F G H I J K L M N O P Q R S T U V W X Y Z