Song name
# A B C D E F G H I J K L M N O P Q R S T U V W X Y Z

Born Ruffians - Foxes Mate For Life tab

Help us improve GuitareTab! Take a short survey!
This song sounds better with a pick on electric of course :). Luke Lalonde
plays each fast chord as clear as a bell and very short - perhaps lots of
muting and fiddling with the tones/pickup. Also, two different sounding
guitars if you listen to the record. God dammit.... go and listen to the
record!

Intro - guitar 1

e--------------------------------------|
B-3333--7777--8888--8888--10-10-10-10--|
G-4444--5555--9999--9999---8--8--8--8--|
D-------------9999--7777--10-10-10-10--|
A--------------------------------------|
E--------------------------------------| x4

Then guitar 2 comes in over the top... and stays continuous until chorus.

e---------------------------12-12-12-12|
B-12-12--12-12--8-8--12-12--12-12-12-12|
G-12-12--12-12--9-9--12-12--12-12-12-12|
D-12-12--12-12--9-9--12-12--11-11-11-11|
A-10-10--10-10-------10-10-------------|
E--------------------------------------|

Chorus - first chord is strum very fast (for the 7s & 5s & 3s below, do an upstroke for 
second strum)

e-----------------8-8-----7-7--5-5--3-3|
B-12-12-12-12--8--5-5-----7-7--5-5--0-0|
G-12-12-12-12--9--5-5-----7-7--5-5--0-0|
D-12-12-12-12--9--5-5------------------|
A-10-10-10-10--7-----------------------|
E--------------------------------------|

And that's all I could come up with, the verses vary a little after chorus 1, but it's 
consistent on the whole.

Love Jackaroo
Related for Foxes Mate For Life tab