Song name
# A B C D E F G H I J K L M N O P Q R S T U V W X Y Z

Born Ruffians - Badonkadonkey tab

-------------------------------------------------------------------------------
			     BADONKADONKEY - BORN RUFFIANS
-------------------------------------------------------------------------------
Tabbed by: pjf.
Email: pauli.ahashakeheartbeak@hotmail.co.uk

Tuning: EADGBe (standard)

i'll save me the time from typing it and you the time from trying to read it by just 
the chords instead of the rhythm as well to go with it. so just refer to the song to get 
rhythm right.

INTRO - MAIN RIFF
strum down then up

    x3
e|-2-14--3-12-3-12-10---------------------------------------------------------|
B|-3-15--3-12-3-12-12---------------------------------------------------------|
G|-2-14--4-12-4-12-12---------------------------------------------------------|
D|-0-0---x-x--x-x--x----------------------------------------------------------|
A|----------------------------------------------------------------------------|
E|----------------------------------------------------------------------------|

'And I don't give a damn about when i see you, I don't'
slide between chords for authenticity.

   D
e|-2---7-5-3------------------------------------------------------------------|
B|-3---7-7-3------------------------------------------------------------------|
G|-2---7-7-4------------------------------------------------------------------|
D|-0--------------------------------------------------------------------------|
A|----------------------------------------------------------------------------|
E|----------------------------------------------------------------------------|

SOLO - match the rhythm using the chords from the intro.

************************************

| /   slide up
| \   slide down
| h   hammer-on
| p   pull-off
| ~   vibrato
| +   harmonic
| x   Mute note
| b   Bend
| pb  Pre-bend
| br  Bend release
| pbr Pre-bend release
| brb Bend release bend

************************************
Tap to rate this tab
 
# A B C D E F G H I J K L M N O P Q R S T U V W X Y Z