Song name
# A B C D E F G H I J K L M N O P Q R S T U V W X Y Z

Born Ruffians - Oh Man tab

Pretty much covers it.
http://www.youtube.com/watch?v=nmhKmlms0Vs


 C# minor  E  C# minor E  C# minor  E          B       A
e|--4------0-----4-----0-----4------0----------7-------5-----|
H|--5------0-----5-----0-----5------0----------7-------5-----|
G|--6------1-----6-----1-----6------1----------8-------6-----| INTRO
D|--6------2-----6-----2-----6------2----------9-------7-----|
A|--4------2-----4-----2-----4------2----------9-------7-----|
E|---------0-----------0------------0----------7-------5-----|


e|---------------------------------|
H|---------------------------------|
G|-------1-----1-------1-----1-----| x4
D|--1p2-----2-------1--------------|
A|-------------------------2-------|
E|---------------------------------|


e|--4----4----|
H|--2----4----|
G|--x----2----|
D|--2----4----|
A|--0----2----|
E|------------|


e|---------------------------------|
H|---------------------------------|
G|-------1-----1-------1-----1-----| x4
D|--1p2-----2-------1--------------|
A|-------------------------2-------|
E|---------------------------------|


e|--4----4----4----0-----|
H|--2----4----5----0-----|
G|--x----2----6----1-----|
D|--2----4----6----2-----|
A|--0----2----4----2-----|
E|-----------------0-----|



 C# minor E  C# minor  E       B       A
e|--4-----0-----4------0-------7-------5-----|
H|--5-----0-----5------0-------7-------5-----|
G|--6-----1-----6------1-------8-------6-----| CHORUS
D|--6-----2-----6------2-------9-------7-----|
A|--4-----2-----4------2-------9-------7-----|
E|--------0------------0-------7-------5-----|
Tap to rate this tab
 
# A B C D E F G H I J K L M N O P Q R S T U V W X Y Z