Song name
# A B C D E F G H I J K L M N O P Q R S T U V W X Y Z

Born Ruffians - Sole Brother tab

---------------------------------------------------------------------------
			  SOLE BROTHER  Born Ruffians
---------------------------------------------------------------------------
Tabbed by: DaveS

Tuning: Standard

Intro (listen out for the timing)
(Guitar 1)
e|------------------------------------------------------------------------|
B|------------------------------------------------------------------------|
G|---7-4-----7-4-----------------7-4-----7-4------------------------------|
D|-5------55------2-2-2/44444--5------55------2-2-2/4---------------------|
A|------------------------------------------------------------------------|
E|------------------------------------------------------------------------|

(Guitar 2)
e|------------------------------------------------------------------------|
B|----8---------8---------------------------------------------------------|
G|------9---------9---7-77-7----------------------------------------------|
D|--------------------------999-9-9---------------------------------------|
A|-10------1010-----------------------------------------------------------|
E|------------------------------------------------------------------------|

Verse (just bass for a while, but then the same intro part is played)

Solo-type part (repeat 4 times)
e|-----------------------10--------------------------------------|
B|-----------------10-12----12-10--------------------------------|
G|------------9-12----------------12-9---------------------------|
D|-------9-12--------------------------12-9----------------------|
A|-10-12---------------------------------------------------------|
E|---------------------------------------------------------------|

e|---------------------------------------------------------------|
B|-10-12-10------10-12-10------10-12-10--------------------------|
G|----------12-9----------12-9-----------------------------------|
D|---------------------------------------------------------------|
A|---------------------------------------------------------------|
E|---------------------------------------------------------------|

Verse (same as before)

Then after verse
e|------------------------------------------------------------------------|
B|------------------------------------------------------------------------|
G|---2-----------0------------2------------3-3-2-0-0----------------------|
D|-----2~----------0------------2~----------------------------------------|
A|-3--------3-3\2----2------3--------3-3\2--------------------------------|
E|------------------------------------------------------------------------|

Repeat, eventually ends on (only child...)
e|------------------------------------------------------------------------|
B|------------------------------------------------------------------------|
G|-------3-3-2-0-0--------------------------------------------------------|
D|-----------------4-4-5~-------------------------------------------------|
A|-3-3\2------------------------------------------------------------------|
E|------------------------------------------------------------------------|

Repeat intro parts
Solo-type part (slightly different this time)
e|-----------------------10--------------------------------------|
B|-----------------10-12----12-10--------------------------------|
G|------------9-12----------------12-9---------------------------|
D|-------9-12--------------------------12-9----------------------|
A|-10-12---------------------------------------------------------|
E|---------------------------------------------------------------|

e|---------------------------------------------------------------|
B|-10-12-10------10-12-10----------------------------------------|
G|----------12-9-------------------------------------------------|
D|---------------------------------------------------------------|
A|---------------------------------------------------------------|
E|---------------------------------------------------------------|

e|-----------------------10--------------------------------------|
B|-----------------10-12----12-10--------------------------------|
G|------------9-12----------------12-9---------------------------|
D|-------9-12--------------------------12-9----------------------|
A|-10-12---------------------------------------------------------|
E|---------------------------------------------------------------|

e|---------------------------------------------------------------|
B|-10-12-10------10-12-10-10-10----------------------------------|
G|----------12-9-------------------------------------------------|
D|---------------------------------------------------------------|
A|---------------------------------------------------------------|
E|---------------------------------------------------------------|

Solo-type part (repeat 4 times)
e|-----------------------10--------------------------------------|
B|-----------------10-12----12-10--------------------------------|
G|------------9-12----------------12-9---------------------------|
D|-------9-12--------------------------12-9----------------------|
A|-10-12---------------------------------------------------------|
E|---------------------------------------------------------------|

e|---------------------------------------------------------------|
B|-10-12-10------10-12-10------10-12-10--------------------------|
G|----------12-9----------12-9-----------------------------------|
D|---------------------------------------------------------------|
A|---------------------------------------------------------------|
E|---------------------------------------------------------------|

Back to the intro parts (4 times through)

Then one guitar plays the solo again while the other continues to play the original 
part until the end.

Little bit of variation on the solo part (at 3.55) its all improv by the sound of it, so 
hard to get down exactly, but along the lines of:
e|-------10-12-15-12-10----------10-12-15-12-10---------------------------|
B|-10-12----------------12-10-12------------------------------------------|
G|------------------------------------------------------------------------|
D|------------------------------------------------------------------------|
A|------------------------------------------------------------------------|
E|------------------------------------------------------------------------|

And that should be it. Enjoy :)

************************************

| /   slide up
| \   slide down
| h   hammer-on
| p   pull-off
| ~   vibrato
| +   harmonic
| x   Mute note
| b   Bend
| pb  Pre-bend
| br  Bend release
| pbr Pre-bend release
| brb Bend release bend

************************************
Tap to rate this tab
# A B C D E F G H I J K L M N O P Q R S T U V W X Y Z