Song name
# A B C D E F G H I J K L M N O P Q R S T U V W X Y Z

Born Ruffians - Mr Agnostic tab

Mr. Agnostic is an easy song so uh, well, here ya go. rate this tab please cuz i wanna 
how i did


e--------------------------------------|
B--------------------------------------|
G--------------------------------------|
D--------------------------------------|
A--0-0-0-0-0-0-0-0---------------------|
E-1-1-1-1-1-1-1-1----------------------|

e--------------------------------------|
B--------------------------------------|
G--------------------------------------|
D--------------------------------------| x4
A--0-0-0-0-1-1-1-1---------------------|
E-1-1-1-1-1-1-1-1----------------------|

e--------------------------------------|
B--------------------------------------|
G--------------------------------------|
D--------------------------------------| x2
A--4-4-4-4-5-5-5-5-0-0-0-0-1-1-1-1-----|
E-5-5-5-5-6-6-6-6-1-1-1-1-1-1-1-1------|

e--------------------------------------|
B--------------------------------------|
G--------------------------------------|
D--------------------------------------| x5
A--0-0-0-0-1-1-1-1---------------------|
E-1-1-1-1-1-1-1-1----------------------|

e--------------------------------------|
B--------------------------------------|
G--------------------------------------|
D--------------------------------------| x2
A--4-4-4-4-5-5-5-5-0-0-0-0-1-1-1-1-----|
E-5-5-5-5-6-6-6-6-1-1-1-1-1-1-1-1------|

e--------------------------------------|
B--------------------------------------|
G--------------------------------------|
D--------------------------------------| x4
A--0-0-0-0-1-1-1-1---------------------|
E-1-1-1-1-1-1-1-1----------------------|

e--------------------------------------|
B--------------------------------------|
G--------------------------------------|
D--------------------------------------| x2
A--4-4-4-4-5-5-5-5-0-0-0-0-1-1-1-1-----|
E-5-5-5-5-6-6-6-6-1-1-1-1-1-1-1-1------|

e--------------------------------------|
B--------------------------------------|
G--------------------------------------|
D--------------------------------------| x5
A--0-0-0-0-1-1-1-1---------------------|
E-1-1-1-1-1-1-1-1----------------------|

e--------------------------------------|
B--------------------------------------|
G--------------------------------------|
D--------------------------------------| x2
A--4-4-4-4-5-5-5-5-0-0-0-0-1-1-1-1-----|
E-5-5-5-5-6-6-6-6-1-1-1-1-1-1-1-1------|

e--------------------------------------|
B--------------------------------------|
G--------------------------------------|
D--------------------------------------| x4
A--0-0-0-0-1-1-1-1---------------------|
E-1-1-1-1-1-1-1-1----------------------|

e--------------------------------------|
B--------------------------------------|
G--------------------------------------|
D--------------------------------------| x2
A--4-4-4-4-5-5-5-5-0-0-0-0-1-1-1-1-----|
E-5-5-5-5-6-6-6-6-1-1-1-1-1-1-1-1------|

e--------------------------------------|
B--------------------------------------|
G--------------------------------------|
D--------------------------------------|
A--0-0-0-0-1-1-1-1---------------------|
E-1-1-1-1-1-1-1-1----------------------|


then i like to just play an F chord however i feel it sounds good and sing the piano part

then!

e--------------------------------------|
B--------------------------------------|
G--------------------------------------|
D--------------------------------------|
A--------------------------------------|
E-0--1---------------------------------|
Tap to rate this tab
 
# A B C D E F G H I J K L M N O P Q R S T U V W X Y Z