Born Ruffians - Oh Man tab

So i learned most of this song before Say It came out by watching the Live in Bellwoods
video in youtube, but then there was that one part where Luke messed up and i always
wondered what happened there. Then i listened to the album and figured it out, and now 
after months of being able to play it myself, i realized that i should share it with the
world. So i basically just took from the person that already made most of the tab, but 
then added what was missing. Thanks Element16161!

C# minor  E  C# minor E  C# minor  E          B       A
e|--4------0-----4-----0-----4------0----------7-------5-----|
B|--5------0-----5-----0-----5------0----------7-------5-----|
G|--6------1-----6-----1-----6------1----------8-------6-----| INTRO/MAIN VERSE
D|--6------2-----6-----2-----6------2----------9-------7-----|
A|--4------2-----4-----2-----4------2----------9-------7-----|
E|---------0-----------0------------0----------7-------5-----|

After those intro chords, strum an E chord and let it ring out, then go on with the verses

e|---------------------------------|
B|---------------------------------|
G|-------1-----1-------1-----1-----| x4
D|--1p2-----2-------1--------------|
A|-------------------------2-------|
E|---------------------------------|


e|--4----4----|
B|--2----4----|
G|--x----2----|
D|--2----4----|
A|--0----2----|
E|------------|


e|---------------------------------|
B|---------------------------------|
G|-------1-----1-------1-----1-----| x4
D|--1p2-----2-------1--------------|
A|-------------------------2-------|
E|---------------------------------|


e|--4----4----4----0-----|
B|--2----4----5----0-----|
G|--x----2----6----1-----|
D|--2----4----6----2-----|
A|--0----2----4----2-----|
E|-----------------0-----|



E         A       E
I'm not a lonely soul

 E       C#m    F#m      C#m     A            E
I know, i know, i know, i know, i know, i know

E            A      E
I just gotta let it go

E          C#m     F#m       C#m       A     E       A      E
The way you roll determines all your wishes and your wants


e---------------------------------------|
B---------------------------------------|
G---------------------------------------|
D-----------------------9--9------------|      x4
A----11-11--9--9-11-11--0--0------------|
E-----0--0--0--0--0--0------------------|


e--------------------------------|
B--------------------------------|
G-----9--11--13--11--9-----------|
D--11-------------------11--9----|
A--------------------------------|
E--------------------------------|

e---------------------------------------|
B---------------------------------------|
G---------------------------------------|
D-----------------------9--9------------|      x4
A----11-11--9--9-11-11--0--0------------|
E-----0--0--0--0--0--0------------------|

e------------------------------------------------------------|
B------------------------------------------------------------|
G---------------------------------------9--9--9--9-----------|
D--11-11-11-11-11-11-11-11-11-11-11----11-11-11-11-----------|
A---0--0--0--0--0--0--0--0--0--0--0--------------------------|
E------------------------------------------------------------|

That's all the stuff you'll be needing!
Tap to rate this tab
 
# A B C D E F G H I J K L M N O P Q R S T U V W X Y Z