Song name
# A B C D E F G H I J K L M N O P Q R S T U V W X Y Z

Born Ruffians - Little Garcon tab

-----------------------------------------------------------------------------
 LITTLE GARCON - Born Ruffians
-----------------------------------------------------------------------------
Tabbed by: James
Email: jammedfool@hotmail.com

Tuning: Standard - E, A, D, G, B, e

Chords used are shown throughout the tab...

Tip: Use your thumb to play the bass note on D/F# and D/B

-----------------------------------------------------------------------------

Intro:

Oooohhhoooohhhhh etc...

       D     D/F#   D/B       D
e|-----2------2------2--------2---|\
B|-----3------3------3--------3---| \
G|-----2------2------2--------2---| |
D|---0-0------0------0------0-0---| |
A|-----x------x---2-(2)---0---x---| |
E|-----x---2-(2)-----x--------x---| |
                                     \
                                     x2
      D/C#           D        D      /
e|-----2-------------2--------2---| |
B|-----3-------------3--------3---| |
G|-----2-------------2--------2---| |
D|-----0-----------0-0------0-0---| |
A|--4-(4)--4-2-0-2---x--------x---| /
E|-----x-------------x--------x---|/


       D     D/F#   D/B       D
e|-----2------2------2--------2---|\
B|-----3------3------3--------3---| \
G|-----2------2------2--------2---| |
D|---0-0------0------0------0-0---| |
A|-----x------x---2-(2)---0---x---| |
E|-----x---2-(2)-----x--------x---| |
                                     \
                                     x1
      D/C#           D        D      /
e|-----2-------------2--------2---| |
B|-----3-------------3--------3---| |
G|-----2-------------2--------2---| |
D|-----0-----------0-0------0-0---| |
A|--4-(4)--4-2-0-----x--------x---| /
E|-----x---------2---x--------x---|/


       D     D/F#   D/B       D
e|-----2------2------2--------2---|\
B|-----3------3------3--------3---| \
G|-----2------2------2--------2---| |
D|---0-0------0------0------0-0---| |
A|-----x------x---2-(2)---0---x---| |
E|-----x---2-(2)-----x--------x---| |
                                     \
                                     x1
      D/C#           D        D      /
e|-----2-------------2--------2---| |
B|-----3-------------3--------3---| |
G|-----2-------------2--------2---| |
D|-----0-----------0-0------0-0---| |
A|--4-(4)--4-2-0-2---x--------x---| /
E|-----x-------------x--------x---|/



Verse:

I don't care just where you go
As long, as long as it's with me
And I don't mind just what you do
As long, as long as it's with me, too

       D     D/F#   D/B       D
e|-----2------2------2--------2---|\
B|-----3------3------3--------3---| \
G|-----2------2------2--------2---| |
D|---0-0------0------0------0-0---| |
A|-----x------x---2-(2)---0---x---| |
E|-----x---2-(2)-----x--------x---| |
                                     \
                                     x2
      D/C#              D     D      /
e|-----2----------------2-----2---| |
B|-----3----------------3-----3---| |
G|-----2----------------2-----2---| |
D|-----0--------------0-0---0-0---| |
A|--4-(4)-----4-2-0-2---x-----x---| /
E|-----x----------------x-----x---|/



Oooohhhoooohhhhh etc...

       D     D/F#   D/B       D
e|-----2------2------2--------2---|\
B|-----3------3------3--------3---| \
G|-----2------2------2--------2---| |
D|---0-0------0------0------0-0---| |
A|-----x------x---2-(2)---0---x---| |
E|-----x---2-(2)-----x--------x---| |
                                     \
                                     x2
      D/C#              D     D      /
e|-----2----------------2-----2---| |
B|-----3----------------3-----3---| |
G|-----2----------------2-----2---| |
D|-----0--------------0-0---0-0---| |
A|--4-(4)-----4-2-0-2---x-----x---| /
E|-----x----------------x-----x---|/  


Ooohhhh (strum D once, then palm mute on D for a bit)



Bridge:

e|------------------------------|\
B|------------------------------| \
G|------------------------------| |
D|------------------------------| |
A|----0~--2-----2-0~--2-4~--0---| |
E|----------4~------------------| |
                                   \
                                   x1
                                   /
      Bm     C#m   Bm   C#m       |
e|----0-----0-----0-----0---0---| |
B|----3-----5-----3-----5---5---| |
G|----4-----6-----4-----6---6---| |
D|----4-----6-----4-----6---6---| |
A|--2-2---4-4---2-2---4-4---4---| /
E|----x-----x-----x-----x-0-x---|/



       A    Amaj7    A      A7
e|-----0------0------0------0---|\
B|-----3------3------3------3---| \
G|-----3------1------3------0---| |
D|-----3------3------3------3---| |
A|---0-0----3-0----3-0----3-0---| |
E|-----x------x------x------x---| |
                                   \
                                   x1
                                   /
      Bm   C#m    Bm   C#m        |
e|----0-----0-----0-----0---0---| |
B|----3-----5-----3-----5---5---| |
G|----4-----6-----4-----6---6---| |
D|----4-----6-----4-----6---6---| |
A|--2-2---4-4---2-2---4-4---4---| /
E|----x-----x-----x-----x-0-x---|/



For second half of song:


Well I get told to never get old
But the way it unfolds
I'm a little garcon in my head
With a little fille that's stuck in bed   x2


Oh, I get told (I get told) to never get old (to never get old)
But the way it unfolds (but the way it unfolds)
I'm a little garcon in my head (I'm a little garcon in my head)
With a little fille that's stuck in bed (with a little fille that's stuck in bed)   x4


       A    Amaj7    A      A7
e|-----0------0------0------0---|\
B|-----3------3------3------3---| \
G|-----3------1------3------0---| |
D|-----3------3------3------3---| |
A|---0-0----3-0----3-0----3-0---| |
E|-----x------x------x------x---| |
                                   \
                                   x6
                                   /
      Bm     C#m   Bm   C#m       |
e|----0-----0-----0-----0---0---| |
B|----3-----5-----3-----5---5---| |
G|----4-----6-----4-----6---6---| |
D|----4-----6-----4-----6---6---| |
A|--2-2---4-4---2-2---4-4---4---| /
E|----x-----x-----x-----x-0-x---|/


 
Woooahooaah

       A    Amaj7    A      A7
e|-----0------0------0------0---|\
B|-----3------3------3------3---| \
G|-----3------1------3------0---| |
D|-----3------3------3------3---| |
A|---0-0----3-0----3-0----3-0---| |
E|-----x------x------x------x---| |
                                   \
                                   x2
                                   /
      Bm     C#m   Bm   C#m       |
e|----0-----0-----0-----0---0---| |
B|----3-----5-----3-----5---5---| |
G|----4-----6-----4-----6---6---| |
D|----4-----6-----4-----6---6---| |
A|--2-2---4-4---2-2---4-4---4---| /
E|----x-----x-----x-----x-0-x---|/  **Hold on C#m on second time around**



Outro (slapping/maybe palm mute on an A):

I (I) don't care (dont care) just where (just where) you go (you go)
As long (as long), as long as it's with me (as long as it's with me)
And I (I) don't mind (dont mind) just what just what) you do (you do)
As long (as long), as long as it's with me (as long as it's with me) too

End

-----------------------------------------------------------------------------

Note: I may also add a simpler chord only version, but I believe this tab is pretty much 
      there in terms of accuracy.. Comments and suggestions are welcome, I tabbed this
      by ear so I dont expect it to be 100% perfect..

Cheers :)

James
Tap to rate this tab
 
# A B C D E F G H I J K L M N O P Q R S T U V W X Y Z