Song name
# A B C D E F G H I J K L M N O P Q R S T U V W X Y Z

Born Ruffians - Im One Of Those Girls tab

Help us improve GuitareTab! Take a short survey!
Im One of Those Girls
by: the Born Ruffians
tabbed by: Sam Kujawski

G|-----------12-12/8---------8--8/12-|
D|-------13---------------10---------|
A|----13---------------10------------|
E|-11----------------8---------------|

repeat this 5 times before this:

G|---------------------------|
D|------5-5-5-----5-5-5------|
A|---------------------------|
E|-4-4-4-----4-4-4------4/11-|

awesome song, through and through.

and has anybody heard anything of a new album from the Born Ruffians?  i heard there might be

thanks, any questions go to kujawsks@optonline.net
Related for Im One Of Those Girls tab