Song name
# A B C D E F G H I J K L M N O P Q R S T U V W X Y Z

Born Ruffians - Hedonistic Me tab

Tabbed by Eric Acosta

Intro
e|----------|
B|----------|
G|-------5--|
D|--5h6h7-7-|
A|----------|
E|----------|

Verse Riff:
e|-------6----6--------------------6----6---------------|
B|-----6----6--------------------6----6-----------------|
G|-----------------------5-------------------------5----| x2
D|---8----8----8-----6/7---7--8-----8----8-----6/7---7--|
A|------------------------------------------------------|
E|------------------------------------------------------|

Chorus:
e|------------------------------6----6------------------6----6------------|
B|--------6--6----------------6----6------------------6----6--------------|
G|--7--7--8--8--7--7--8--8---------------------5-----------------------5--|
D|--8--8--8--8--8--8--8--8--8----8----8----6/7---7--8----8----8----6/7--7-|
A|--6--6--6--6------------------------------------------------------------|
E|--------------6--6--8--8------------------------------------------------|

Order:
Intro
Verse x4
Chorus
Verse x3
Chorus x2
Verse x3
Chorus x2
Verse
Tap to rate this tab
 
# A B C D E F G H I J K L M N O P Q R S T U V W X Y Z