Song name
# A B C D E F G H I J K L M N O P Q R S T U V W X Y Z

Born Without Bones - The Camera Turns tab

-------------------------------------------------------------------------------
                             The Camera Turns  Born Without Bones
-------------------------------------------------------------------------------
Tabbed by: Jacob Jaillet
For: Grace Walton

Tuning:Standard



This is basically it repeating

e|---------------------------------------------------------------------------|
B|--------------------------------let ring out-------------------------------|
G|------8---------8---------8--8---------------------------------------------|
D|----6---6-----6---6-----6----6---------------------------------------------|
A|--8---------6---------4------4---------------------------------------------|
E|---------------------------------------------------------------------------|

e|---------------------------------------------------------------------------|
B|--------------------------------let ring out-------------------------------|
G|------8---------8---------5--5---------------------------------------------|
D|----6---6-----6---6-----6----6---------------------------------------------|
A|--8---------6---------4------4---------------------------------------------|
E|---------------------------------------------------------------------------|

www.facebook.com/bornwithoutbonesma

http://bornwithoutbones.bandcamp.com/track/the-camera-turns-2

from Say Hello, released 16 November 2010 
Scott Ayotte-Vocals, Guitars, Bass, Piano, Drums. 
Brendan Cahill-Piano, Group Vocal. 
Christine Atturio-Group Vocal 
Emilio Santiago-Group Vocal 
Devon Edwards-Group Vocal 

************************************

| /   slide up
| \   slide down
| h   hammer-on
| p   pull-off
| ~   vibrato
| +   harmonic
| x   Mute note
| b   Bend
| pb  Pre-bend
| br  Bend release
| pbr Pre-bend release
| brb Bend release bend

************************************
Tap to rate this tab
# A B C D E F G H I J K L M N O P Q R S T U V W X Y Z