Song name
# A B C D E F G H I J K L M N O P Q R S T U V W X Y Z

Bornholm - Acheron tab

-------------------------------------------------------------------------------
			   Acheron - Bornholm
-------------------------------------------------------------------------------
Tabbed by: w8ulostme
Email: w8ulostme@yahoo.com
Bornholm official webpage: http://www.bornholm.hu/index.html
Tuning: Standard

Riff A: 4x
e|---------------------------------------------------------------------------|
B|---------------------------------------------------------------------------|
G|---------------------------------------------------------------------------|
D|---5-4~~------5-5/7--5-4h5p4-------------5-4~~------2---2-4-0-2-2/4--------|
A|2-------2--2--------------------2--------------2-2-------------------------|
E|0-------0--0--------------------0--------------0-0-------------------------|
          X                                      X X
Riff B: 2x
e|---------------------------------------------------------------------------|
B|---------------------------------------------------------------------------|
G|---------------------------------------------------------------------------|
D|---------------------------------------------------------------------------|
A|2-2--2-3-3-3-2--2--2--2-3-2-2-2--2-3-3-3-2--2--2--2-3/5-3------------------|
E|0-0--0-0-0-0-0--0--0--0-----0-0--0-0-0-0-0--0--0--0------------------------|
    X          X     X          X          X     X
Riff C: 2x
e|---------------------------------------------------------------------------|
B|---------------------------------------------------------------------------|
G|---------------------------------------------------------------------------|
D|2~~-2-4-5-4h5p4-2-2--5-5-4-2~~-2-4-5-4h5p4-2-2--5-5/7-4--------------------|
A|---------------------------------------------------------------------------|
E|---------------------------------------------------------------------------|

Riff D: 2x
e|---------------------------------------------------------------------------|
B|---------------------------------------------------------------------------|
G|---------------------------------------------------------------------------|
D|---------------------------------------5-4-5-5/7---------------------------|
A|2-2-------------2-0-3-2-2-----------2--------------------------------------|
E|0-0-3-2-3-5-3---0-0-0-0-0-3-2-3-5-3-0--------------------------------------|
      X X X X X             X X X X X
e|-------------------------------------------------------------|---|---------|
B|-------------------------------------------------------------|---|---------|
G|-------------------------------------------------------------|---|---------|
D|--------------------------------------4-2-5-4-5-5/7----------|-5-|---------|
A|2-2-------------2-0-3-2-2------------------------------------|---|---------|
E|0-0-3-2-3-5-3---0-0-0-0-0-3-2-3-5-3--------------------------|---|---------|
      X X X X X             X X X X X


Riff B: 1x


Riff E:
e|---------------------------------------------------------------------------|
B|---------------------------------------------------------------------------|
G|---------------------------------------------------------------------------|
D|2~~-2-4-5-4h5p4-2-2--5-5-4-2~~-2-4-5-4h5p4-2-2---9--7h9p7-5----------------|
A|---------------------------------------------------------------------------|
E|---------------------------------------------------------------------------|

Riff D: 2x
Riff A: 4x

Solo:
e|---------------------------------------------------------------------------|
B|-----------------------------------------------------8-7h8p7---------------|
G|------------------------------------9-7-7~9-9~-----9---------9-7-9~--------|
D|9-----------4-5-4-5-7-5-7-9~~---7-9--------------9-------------------------|
A|7--------7-----------------------------------------------------------------|
E|0---12\--------------------------------------------------------------------|
                                                   X

e|-----------------------------------7----7-8-7-8-10-19----15--19p17p15------|
B|---------------7h8p7---7-8-10-8-10---10------------------------------------|
G|9-11-9~\---9---------9-----------------------------------------------------|
D|---------------------------------------------------------------------------|
A|---------------------------------------------------------------------------|
E|---------------------------------------------------------------------------|

e|------------15-------------------15----------------15----15/17-------------------|
B|17-15-17-15----17p15-17-15-17-15----17-15-17-15-17----17-------17-15-17-12/17----|
G|---------------------------------------------------------------------------------|
D|---------------------------------------------------------------------------------|
A|---------------------------------------------------------------------------------|
E|---------------------------------------------------------------------------------|


Riff A: 4x


e|---------------------------------------------------------------------------|
B|---------------------------------------------------------------------------|
G|---------------------------------------------------------------------------|
D|9--------------------------------------------------------------------------|
A|7--------------5-4-2-----2---5-4-------------------------------------------|
E|0--------------3-2-0-----0---3-2-------------------------------------------|
                A-cher-on      A-cher-on

Riff B: 2x


Riff E: 2x
e|---------------------------------------------------------------------------|
B|---------------------------------------------------------------------------|
G|---------------------------------------------------------------------------|
D|2~~-2-4-5-4h5p4-2-2--5-5-4-2~~-2-4-5-4h5p4-2-2---9--7h9p7-5----------------|
A|---------------------------------------------------------------------------|
E|---------------------------------------------------------------------------|

e|---------------------------------------------------------------------------|
B|---------------------------------------------------------------------------|
G|---------------------------------------------------------------------------|
D|---------------------------------------------------------------------------|
A|7---7-5-3-5-5/7~~~~~~------------------------------------------------------|
E|---------------------------------------------------------------------------|


************************************

| /   slide up
| \   slide down
| h   hammer-on
| p   pull-off
| ~   vibrato
| +   harmonic
| x   Mute note
| b   Bend
| pb  Pre-bend
| br  Bend release
| pbr Pre-bend release
| brb Bend release bend

************************************
Tap to rate this tab
# A B C D E F G H I J K L M N O P Q R S T U V W X Y Z