Song name
# A B C D E F G H I J K L M N O P Q R S T U V W X Y Z

Bosnian Rainbows - I Cry For You tab

-------------------------------------------------------------------------------
                   I CRY FOR YOU - Bosnian Rainbows
-------------------------------------------------------------------------------
Tabbed by: Steve Dubuque
E-mail: sdubuque43@gmail.com

Tuning:EADGBE


0:00 - 0:16
straight up distortion

e|---------------------------------------------------------------------------|
B|---------------------------------------------------11-11-11-11-11-11-11-11-|
G|---------------------------------------------------11-11-11-11-11-11-11-11-|
D|---------------------------------------------------11-11-11-11-11-11-11-11-|
A|--9-9-9-9-9-9-9-9-9-9-9-9-9-9-9-9-5-5-5-5-5-5-5-5--9--9--9--9--9--9--9--9--|
E|--7-7-7-7-7-7-7-7-7-7-7-7-7-7-7-7\3-3-3-3-3-3-3-3--x-----------------------|



0:16-0:43  
volume swell, delay, light phase(?) and whammy bar action


  0:16                  0:23             0:30               0:37

e|---------------------------------------------------------------------------|
B|---12~~--------------------10~~----15~~---12~~---------7~~-----10~~----15~~|
G|--------11~--11~--11~~---9~~---11~~-----------11~~-7~~-------9~~---11~~----|
D|---------------------------------------------------------------------------|
A|---------------------------------------------------------------------------|
E|---------------------------------------------------------------------------|

0:43
straight up distortion


e|--------------------------------------------------7+7+7+7+--(0)-
                        
                    
Tap to rate this tab
# A B C D E F G H I J K L M N O P Q R S T U V W X Y Z