Song name
# A B C D E F G H I J K L M N O P Q R S T U V W X Y Z

Bosse - Sommer Lang tab

Tuning h down to a


Vers 2x
e---------------3-0-3----------3-0-3----|
a---3-0 3---------------3-0-3-----------|
G---2-2-2---------------2-2-2-----------|
D---2-2-2---------------3-3-3-----------|
A---x-x-x-------2-2-2----------2-2-2----|
E---x-x-x-------3-3-3----------3-3-3----|

Pre - Chorus
e------3-3------------------------------|
a-3-3-------3-3--3-3--------------------|
G-2-2-------2-2--2-2--------------------|
D-3-3-------2-2--2-2--------------------|
A-x-x--2-2------------------------------|
E-x-x--3-3------------------------------|

Chorus
e-------3-3------3-3--------------------|
a--3-3------3-3-------------------------|
G--2-2------2-2-------------------------|
D--3-3------2-2-------------------------|
A--x-x--2-2------2-2--------------------|
E--x-x--3-3------3-3--------------------|

Vers 1x

Pre - Chorus

Chorus 2x

Bridge
e---------------3-0-3----------3-0-3----|
a---3-0 3---------------3-0-3-----------|
G---2-2-2---------------2-2-2-----------|
D---2-2-2---------------3-3-3-----------|
A---x-x-x-------2-2-2----------2-2-2----|
E---x-x-x-------3-3-3----------3-3-3----|

Pre - Chorus

Chorus 2x
Tap to rate this tab
# A B C D E F G H I J K L M N O P Q R S T U V W X Y Z