Song name
# A B C D E F G H I J K L M N O P Q R S T U V W X Y Z

Bosse - Irgendwo Dazwischen tab

Highlighted       Show chord diagrams
------------------------------------------------------------------------------
     Tab by GuitarFreakOut          Irgenwo Dazwischen
------------------------------------------------------------------------------

Tune:d
     H
     G
     D
     A
     E

Intro 2x
   Em      C     G                   h7
D|-0-------0-----0-0-5-5-4-4-4-4-4-4-0------|
H|-0-------1-----3-0-3-3-3-3-3-3-3-3-0------|
G|-0-------0-----0-0-0-0-0-0-0-0-0-0-0------|
D|-2-x10---2-x10-0-0-0-0-0-0-0-0-0-0-0-x10--|
A|-2-------3-----2-2-2-2-2-2-2-2-2-2-9------|
E|-0-------X-----3-3-3-3-3-3-3-3-3-3-7------|

Vers 4x
   Em      C     G                   h7
D|-0-------0-----0-0-5-5-4-4-4-4-4-4-0------|
H|-0-------1-----3-0-3-3-3-3-3-3-3-3-0------|
G|-0-------0-----0-0-0-0-0-0-0-0-0-0-0------|
D|-2-x10---2-x10-0-0-0-0-0-0-0-0-0-0-0-x10--|
A|-2-------3-----2-2-2-2-2-2-2-2-2-2-9------|
E|-0-------X-----3-3-3-3-3-3-3-3-3-3-7------|

Refrain 4x
   C     G                   h7      Em   G
D|-0-----0-0-5-5-4-4-4-4-4-4--0------0----0-----|
H|-1-----3-0-3-3-3-3-3-3-3-3--0------0----3-----|
G|-0-----0-0-0-0-0-0-0-0-0-0--0------0----0-----|
D|-2-x10-0-0-0-0-0-0-0-0-0-0--4-x10--2-x5-0-x5--|
A|-3-----2-2-2-2-2-2-2-2-2-2--2------2----2-----|
E|-X-----3-3-3-3-3-3-3-3-3-3--0------0----3-----|

Vers 4x
   Em      C     G                   h7
D|-0-------0-----0-0-5-5-4-4-4-4-4-4-0------|
H|-0-------1-----3-0-3-3-3-3-3-3-3-3-0------|
G|-0-------0-----0-0-0-0-0-0-0-0-0-0-0------|
D|-2-x10---2-x10-0-0-0-0-0-0-0-0-0-0-0-x10--|
A|-2-------3-----2-2-2-2-2-2-2-2-2-2-9------|
E|-0-------X-----3-3-3-3-3-3-3-3-3-3-7------|

Bridge
         Em                     C               
 Auf der Rückbank im Taxi, dein Pass in der Hand.
     h7                       
 Ich wünsch dir viel Glück 
Em--------------------------------------------------------------
Und irgendwo dazwischen tuts weh und irgendwo dazwischen tuts weh

Refrain 4x
   C     G                   h7      Em   G
D|-0-----0-0-5-5-4-4-4-4-4-4--0------0----0-----|
H|-1-----3-0-3-3-3-3-3-3-3-3--0------0----3-----|
G|-0-----0-0-0-0-0-0-0-0-0-0--0------0----0-----|
D|-2-x10-0-0-0-0-0-0-0-0-0-0--4-x10--2-x5-0-x5--|
A|-3-----2-2-2-2-2-2-2-2-2-2--2------2----2-----|
E|-X-----3-3-3-3-3-3-3-3-3-3--0------0----3-----|

Danke
Tab by GuitarFreakOut
Tap to rate this tab
 
# A B C D E F G H I J K L M N O P Q R S T U V W X Y Z