Song name
# A B C D E F G H I J K L M N O P Q R S T U V W X Y Z

Bosse - 3 Millionen tab

Achtung!
Die Gitarre ist bei diesem Lied einen Ganzton tiefer gestimmt (D G C F A D).

Intro/Verse:

-----------------------------------------------------------------------------|
-----------------------------------------------------------------------------|
------------------10-10-10-10-10-10-10-10-10---------------------------------|
5555555-88888888--10-10-10-10-10-10-10-10-10-10-10-10-10-10-10-10-10 --------|
5555555-88888888--8--8--8--8--8--8--8--8--8--10-10-10-10-10-10-10-10---------|
3333333-66666666------------------------------8--8--8--8--8--8--8--8---------|


Chorus:

-1-1-1-1--0-0-0-0--1-1-1-1--x-x-x-x--|
-3-3-3-3--1-1-1-1--1-1-1-1--3-3-3-3--|
-2-2-2-2--0-0-0-0--3-3-3-3--3-3-3-3--|
-0-0-0-0--2-2-2-2--3-3-3-3--5-5-5-5--|
----------3-3-3-3--1-1-1-1--5-5-5-5--|
-------------------1-1-1-1--3-3-3-3--|

-0-0-0-0--0-0-0-0--1-1-1-1--3-3-3-3-- 1-1-1-1--3-3-3-3-|
-3-3-3-3--1-1-1-1--1-1-1-1--3-3-3-3-- 1-1-1-1--3-3-3-3-|
-2-2-2-2--0-0-0-0--3-3-3-3--5-5-5-5-- 3-3-3-3--5-5-5-5-|
-0-0-0-0--2-2-2-2--3-3-3-3--5-5-5-5-- 3-3-3-3--5-5-5-5-|
----------3-3-3-3--1-1-1-1--3-3-3-3-- 1-1-1-1--3-3-3-3-|
-------------------1-1-1-1--3-3-3-3-- 1-1-1-1--3-3-3-3-|
Tap to rate this tab
# A B C D E F G H I J K L M N O P Q R S T U V W X Y Z