Song name
# A B C D E F G H I J K L M N O P Q R S T U V W X Y Z

Bosse - 3 Millionen tab

Den Akkord F bitte so spielen : x x 3 5 6 x

                   !               !             ! !
E -------------------------------------------------------------------|
H -3-3-3-3-3-3-3-3-1-1-1-1-1-1-1-1-6-6-6-6-6-6-6-8-5-5-5-5-5-5-5-----|
G -------------------------------------------------------------------|
D -------------------------------------------------------------------|
A -------------------------------------------------------------------|
E -------------------------------------------------------------------|

                 !               !                 !   ! !
E ---------------------------------------------------------------|
H -6-6-6-6-6-6-6-6-----------------------------------------------|
G -7-7-7-7-7-7-7-7-5-5-5-5-5-5-5-5-------------------------------|
D -7-7-7-7-7-7-7-7-5-5-5-5-5-5-5-5-10-10-10-10-10-10---12-999999-|
A -5-5-5-5-5-5-5-5-3-3-3-3-3-3-3-3-8- 8 -8 -8 - 8 -8---10-777777-|
E ---------------------------------------------------------------|


Chrous:

Dm                          C
Dein Arzt hat gesagt es ist okay
     F        Gm
Aber alles tut weh.
Dm                              C
Deine Freunde sagen dir es geht vorbei
        F            Gm
Aber es geht nicht so leicht
Dm                               C
In deiner Stadt leben über 3 Millionen
Dm                           C
Und du bist heute Nacht unterwegs
Dm                                 C
Um zu schauen ob unter diesen 3 Millionen
       F    Fm      Gm
Jemand ist der dich versteht
       F    Fm      Gm
Jemand ist der dich versteht

Großartiges Lied. Leider gibts noch nichit so viele Tabs dafür.

Gez. Dupont
17.10.09
Tap to rate this tab
# A B C D E F G H I J K L M N O P Q R S T U V W X Y Z