Song name
# A B C D E F G H I J K L M N O P Q R S T U V W X Y Z

Bosse - Irgendwo Dazwischen chords

Highlighted       Show chord diagrams
------------------------------------------------------------------------------
     Tab by Jasperandguitar, based on a tab by GuitarFreakOut

	Bosse - Taxi - Irgendwo Dazwischen
------------------------------------------------------------------------------

This transcription is based on ver 1 tabbed by Guitarfreakout. I changed some 
chords, in particular in the refrain. Try it out and write some comments please!


Tune:d
     H
     G
     D
     A
     E

Intro 2x

   Em7     Csus2 G                   h7
D|-0-------0-----0-0-5-5-4-4-4-4-4-4-0------|
H|-0-------1-----3-0-3-3-3-3-3-3-3-3-0------|
G|-0-------0-----0-0-0-0-0-0-0-0-0-0-0------|
D|-2-x8----2-x8--0-0-0-0-0-0-0-0-0-0-0-x8---|
A|-2-------3-----2-2-2-2-2-2-2-2-2-2-9------|
E|-0-------X-----3-3-3-3-3-3-3-3-3-3-7------|

Vers 4x

   Em7     Csus2 G                   h7
D|-0-------0-----0-0-5-5-4-4-4-4-4-4-0------|
H|-0-------1-----3-0-3-3-3-3-3-3-3-3-0------|
G|-0-------0-----0-0-0-0-0-0-0-0-0-0-0------|
D|-2-x8----2-x8--0-0-0-0-0-0-0-0-0-0-0-x8---|
A|-2-------3-----2-2-2-2-2-2-2-2-2-2-9------|
E|-0-------X-----3-3-3-3-3-3-3-3-3-3-7------|

Refrain  

   Csus2 G                    h7     D/F# Csus2
D|-0-----0-0-5-5-4-4-4-4-4-4--0------0----0-----|
H|-1-----3-0-3-3-3-3-3-3-3-3--0------3----1-----|
G|-0-----0-0-0-0-0-0-0-0-0-0--0------2----0-----|
D|-2-x8--0-0-0-0-0-0-0-0-0-0--4-x8---0-x4-2-x4--|
A|-3-----2-2-2-2-2-2-2-2-2-2--2------0----3-----|
E|-X-----3-3-3-3-3-3-3-3-3-3--0------2----x-----|


   Csus2 G                    h7     D/F# G
D|-0-----0-0-5-5-4-4-4-4-4-4--0------0----0-----|
H|-1-----3-0-3-3-3-3-3-3-3-3--0------3----3-----|
G|-0-----0-0-0-0-0-0-0-0-0-0--0------2----0-----|
D|-2-x8--0-0-0-0-0-0-0-0-0-0--4-x8---0-x4-0-x4--|
A|-3-----2-2-2-2-2-2-2-2-2-2--2------0----2-----|
E|-X-----3-3-3-3-3-3-3-3-3-3--0------2----3-----|



Vers 4x

   Em7     Csus2 G                   h7
D|-0-------0-----0-0-5-5-4-4-4-4-4-4-0------|
H|-0-------1-----3-0-3-3-3-3-3-3-3-3-0------|
G|-0-------0-----0-0-0-0-0-0-0-0-0-0-0------|
D|-2-x8----2-x8--0-0-0-0-0-0-0-0-0-0-0-x8---|
A|-2-------3-----2-2-2-2-2-2-2-2-2-2-9------|
E|-0-------X-----3-3-3-3-3-3-3-3-3-3-7------|


Bridge
         Em7                    Csus2               
 Auf der Rückbank im Taxi, dein Pass in der Hand.
     h7                       
 Ich wünsch dir viel Glück 
Em7--------------------------------------------------------------
Und irgendwo dazwischen tuts weh und irgendwo dazwischen tuts weh

Refrain


   Csus2 G                    h7     D/F# Csus2
D|-0-----0-0-5-5-4-4-4-4-4-4--0------0----0-----|
H|-1-----3-0-3-3-3-3-3-3-3-3--0------3----1-----|
G|-0-----0-0-0-0-0-0-0-0-0-0--0------2----0-----|
D|-2-x8--0-0-0-0-0-0-0-0-0-0--4-x8---0-x4-2-x4--|
A|-3-----2-2-2-2-2-2-2-2-2-2--2------0----3-----|
E|-X-----3-3-3-3-3-3-3-3-3-3--0------2----x-----|


   Csus2 G                    h7     D/F# G
D|-0-----0-0-5-5-4-4-4-4-4-4--0------0----0-----|
H|-1-----3-0-3-3-3-3-3-3-3-3--0------3----3-----|
G|-0-----0-0-0-0-0-0-0-0-0-0--0------2----0-----|
D|-2-x8--0-0-0-0-0-0-0-0-0-0--4-x8---0-x4-0-x4--|
A|-3-----2-2-2-2-2-2-2-2-2-2--2------0----2-----|
E|-X-----3-3-3-3-3-3-3-3-3-3--0------2----3-----|


Tab by JasperandGuitar, based on a tab by GuitarFreakOut
Tap to rate this tab
# A B C D E F G H I J K L M N O P Q R S T U V W X Y Z