Song name
# A B C D E F G H I J K L M N O P Q R S T U V W X Y Z

Boston - Dreams tab

Boston - Dreams (Intro)

e]-------------------------------------------|
B]-------------------------------------------|
G]-------------------------------------------|
D]------9----------------9-------------------|
A]-----7-----9-----7---7----9---7------------|
E]----------7-----5---------7---5------------|

e]-------------------------------------------|
B]-------------------------------------------|
G]-------------------------------------------|
D]----7-------------9------------------------|
A]---5----7----5--7---9---7------------------|
E]-------5----3-------7---5------------------| 

Tap to rate this tab
 
# A B C D E F G H I J K L M N O P Q R S T U V W X Y Z