Song name
# A B C D E F G H I J K L M N O P Q R S T U V W X Y Z

Boston - More Than A Feeling tab

-------------------------------------------------------------------------------
	                       More Than a Feeling - Boston
-------------------------------------------------------------------------------
Tabbed by: bladedguitar66

Tuning: Standard

Song Order:
Fade in
Verse 1
Pre-chorus
Chorus
Post Chorus 1
Verse 2
Pre-Chorus
Chorus
Post Chorus 2
1st Solo
Verse 3
2nd solo
Final Pre-chorus
Chorus
Fade Out


Main riff
    Dsus4
e|-----3-2-----------------------3-2--------0--------3----------------------|
B|--3-----2-----3---3--3-------3----3-----3--3-3---3--3-0-------------------|
G|---2-----0---0---0------3x----2----0---0-0--0---0-0--0--------------------|
D|-0-------------------------0----------------------------------------------|
A|-----------3----2--------------------3---------2--------------------------|
E|--------------------3-----------------------------------------------------|

Pre-chorus
  Am(2)   G5(2)  D(4)
e|---------------------------------------------------------------------------|
B|-12hbr-12-12hbr-10-12br-10h12p10\8-8---------------------------------------|
G|---------------------------------------------------------------------------|
D|---------------------------------------------------------------------------|
A|---------------------------------------------------------------------------|
E|---------------------------------------------------------------------------|

Last Pre-chorus
  Am(2)   G5(2)  D(4)
e|---------------------------------------------------------------------------|
B|-12hbr-12-12hbr-10-10h12p10--12hbr-10h12p10\8-8----------------------------|
G|---------------------------------------------------------------------------|
D|---------------------------------------------------------------------------|
A|---------------------------------------------------------------------------|
E|---------------------------------------------------------------------------|


Chorus
e|---------------------------------------------------------------------------|
B|---------------------------------------------------------------------------|
G|--------5-5--9-999-9--7-7--------------------------------------------------|
D|-5-5-5--5-5--9-999-9--7-7--------------------------------------------------|
A|-5-5-5--3-3--7-777-7--5-5--------------------------------------------------|
E|-3-3-3---------------------------------------------------------------------|

 End chorus with
e|---------------------------------------------------------------------------|
B|---------------------------------------------------------------------------|
G|--------5-5--8-------------------------------------------------------------|
D|-5-5-5--5-5--8-------------------------------------------------------------|
A|-5-5-5--3-3--6-------------------------------------------------------------|
E|-3-3-3---------------------------------------------------------------------|

Post Chorus 1
e|-0-----0-0-0-0-0--3----3-----0------------------------------|
B|-3-----3-2-0-2-0--3----3--3--3--3---------------------------|
G|-0-----2-2-2-2-2--0----0--2--0--2---------------------------|
D|-2-----2-2-2-2-2--0----0--0--2--0---------------------------|
A|-2----------------x----x--x--2------------------------------|
E|-0----------------3----3--2---------------------------------|

Post Chorus 2 (into solo)
e|-0-----0-0-0-0-0--3---333333--------------------------------|
B|-3-----3-2-0-2-0--3---333333----------33333-2---------------|
G|-0-----2-2-2-2-2--0---000000--4-4444--22222-2---------------|
D|-2-----2-2-2-2-2--0---000000--4-2222--22222-2---------------|
A|-2----------------x---xxxxxx--2-2222--00000-0---------------|
E|-0----------------3---333333--------------------------------|


1st Solo
e|---------------------------------------------------------------------------|
B|-2-3-5-7-7-7h8p7---8b--8-7-5h7p5---5h7---8-7h8p7---------------------------|
G|----------------9-7---7----------7------7-------9-7-9br-7\6----------------|
D|------------------------------------------------------------7--------------|
A|---------------------------------------------------------------------------|
E|---------------------------------------------------------------------------|

e|---------------------------------------------------------------------------|
B|-8-7-7h8p7----10b--10-8-7h8p7--7-----8-7-5h7p5--5--------------------------|
G|----------9-7-----------------9---/7-----------7---------------------------|
D|---------------------------------------------------------------------------|
A|---------------------------------------------------------------------------|
E|---------------------------------------------------------------------------|

e|-------------------------------17b-----------------------------------------|
B|-----------------------15p14-----------------------------------------------|
G|-/11-9h11p9-----------------16---------------------------------------------|
D|------------12-11-12-------------------------------------------------------|
A|---------------------------------------------------------------------------|
E|---------------------------------------------------------------------------|

Post Solo
e|-3----------------------------------------------------------------|
B|-3-3-3-3----------------------------------------------------------|
G|-0-2-0-2----------------------------------------------------------|
D|-0-0-2-0----------------------------------------------------------|
A|-x-x-2------------------------------------------------------------|
E|-3-2-0------------------------------------------------------------|

Riff under second solo
e|------------0-0-0------------------------------------------------------|
B|-3--3-3-----3-3-3------------------------------------------------------|
G|-2--2-2-----0-0-0------------------------------------------------------|
D|-0--0-0-----0-0-0------------------------------------------------------|
A|--------0-2-3-2-3------------------------------------------------------|
E|-----------------------------------------------------------------------|

2nd Solo
e|---------------------------------------------------------------------------|
B|----------10b10b-----------------------------------------------------------|
G|-9b9b9b-9b-----------------------------------------------------------------|
D|---------------------------------------------------------------------------|
A|---------------------------------------------------------------------------|
E|---------------------------------------------------------------------------|

/ = slide up
\ = slide down
h = hammer-on
p = pull-off
b = bend
hb = half step bend
s = sustain
~ = vibrato
+ = harmonic
x = Mute note


Lyrics:
I looked out this morning and the sun was gone
Turned on some music to start my day
I lost myself in a familiar song
I closed my eyes and I slipped away

It’s more than a feeling, (More than a feeling)
When I hear that old song they used to play (more than a feeling)
And I begin dreaming (more than a feeling)
‘till I see Marianne walk away

I see my Marianne walkin’ away

So many people have come and gone
Their faces fade as the years go by
Yet I still recall as I wander on
As clear as the sun in the summer sky

It’s more than a feeling, (More than a feeling)
When I hear that old song they used to play (more than a feeling)
And I begin dreaming (more than a feeling)
‘till I see Marianne walk away

I see my Marianne walkin’ away

When I'm tired and thinking cold
I hide in my music, forget the day
And dream of a girl I used to know
I closed my eyes and she slipped away
She slipped away. She slipped away.

It’s more than a feeling, (More than a feeling)
When I hear that old song they used to play (more than a feeling)
And I begin dreaming (more than a feeling)
‘till I see Marianne walk away

I see my Marianne walkin’ away

Tap to rate this tab
 
# A B C D E F G H I J K L M N O P Q R S T U V W X Y Z