Song name
# A B C D E F G H I J K L M N O P Q R S T U V W X Y Z

Boston - Feelin Satisfied tab

Boston - 'Feelin Satisfied'
From 'Don't Look Back' Album
Standard Tuning
tabbed by jjhand



Intro - play 3x 
e|------------------------|-------------------------|
B|------------------------|-------------------------|
G|------------------------|-9--------9-------9------|
D|-----9----9----9--9-----|-9--------9-------9------|
A|-----9----9----9--9-----|-7--------7-------7------|    the pm notes occur
E|-7-7-7----7----7--7--0--|----0--0-------0---------| <- on last 1/2 beat
pm * * 

e|------------------------|---------------------|----------------------|
B|------------------------|---------------------|-----------/14--14----|
G|------------------------|---------------------|-----------/14--14----|
D|-----9----9----9--9-----|-7----7----7----7----|-7----7----/14--14----|
A|-----9----9----9--9-----|-7----7----7----7----|-7----7----/12--12----|
E|-7-7-7----7----7--7---5-|-5----5----5----5----|-5----5---------------|



Verse Riff 1 - Same Distorted Guitar as intro
e|--------------------|---------------------|---------------------|-------------------|
B|--------------------|----------10p9--9----|---------------------|-------------------|
G|-9----9-------------|-9----9----9----9----|---------------------|-7----7---6-6------|
D|-9----9--------11---|-9----9---11p9--9----|-7----7----7----7----|-7----7-----7------|
A|-7----7--------7----|-7----7--------------|-7----7----7----7----|-7----7-----7------|
E|--------------------|---------------------|-5----5----5----5----|-5----5-----5------|
"So Come on, all you people. The time has come to get together             you gotta"


e|--------------------|---------------------|---------------------|--------------------|
B|--------------------|-----------10p9-9----|---------------------|--------------------|
G|-9----9-------------|-9----9----9----9----|-7----7--6------9----|--------------------|
D|-9----9--------11---|-9----9----11p9-9----|-7----7--7------7----|-9--9--9----9---9---|
A|-7----7--------7----|-7----7--------------|-0----0--0--00--0----|-9--9--9----9---9---|
E|--------------------|---------------------|---------------------|-7--7--7----7---7---|
 "have a little rock-n-roll music to get ya through the stormy weather, to do whatever u feel"



Verse Riff 2 - Clean + Chorus
e|-4------------------4--|-(4)--------------|--------------------|---------------------|
B|-5------------------4--|-(4)--------------|-----------------/7-|-(7)-----------------|
G|-6------------6-----4--|-(4)---------4----|---------6-------/7-|-(7)---7------6------|
D|-6---------6--------6--|-(6)-----------6--|-----7-----7--------|---------7----7------|
A|-4------------------6--|-(6)-----------6--|---7---7-----7------|---------------------|
E|--------------------4--|-(4)--------------|-5------------------|---------------------|
     "When you don't know,           nothings going to help you better than rock n roll"




Prechorus - Distorted Guitar
e|------------------|---------------------|------------------|----------------------|
B|------------------|-------3----2------0-|------------------|-------3----2---------|
G|------------------|-2-----2----2------0-|------------------|-2-----2----2---------|
D|--------------2---|-2---2-2----2------0-|--------------2---|-2---2-2----2---------|
A|------------2-----|-0---0------0--------|------------2-----|-0---0------0---------|
E|-0---0-4h5------4-|---------------------|-0---0-4h5------4-|-----------------3b4--|
"So come on, and put your hands together    Yeah come on, and put your hands together"

e|------------------|---------------------|-------------------|
B|------------------|---------------------|-------------------|
G|------------------|---------------------|-2-----------------|
D|--------------2---|-4----4--6--4--4--4--|-2-----------------|
A|------------2---0-|-2----2--2--2--2--2--|-0-----------------|
E|-0---0-4h5--------|---------------------|-------------------|
"Well come on, you know its now or never take a chance on rock n roll"


Chorus - play 4x

Mostly power chords, but may sometimes be the lower 2 notes only
e|-----------------|-----------------------|----------------|---------------------|
B|-----------------|-----------------------|----------------|---------------------|
G|-----------------|-----------------------|----------------|-------2---------2---|
D|-11-------9------|-7----------7-------7--|-9------7---6-6-|-4-4-2-2-2-----2-2-2-|
A|-11-------9------|-7-----7----7--7----7--|-9------7---6-6-|-4-4-2-0-2-----2-0-2-|
E|-9--------7------|-5--4--0----5--0----5--|-7------5---4-4-|-2-2-0---0-----0---0-|

1. Guitar only

2. "Ooh are you feelin satisfied?             Come on let us give your mind a ride"

3. "Ooh         are you ready tonight?  Come on let us give your mind a ride. Its up to"

4. "You!        You can do what you like. Come on let us give your mind a ride (Ow!)"






Solo 1 - 

* some parts have multiple guitars (for these parts only pitch is accurate, not position)
e|------------------|-----------------------|----------------------|---------------------|
B|-5------4------2h4|p2--0--0------------2--|-4------2h4p2---0-----|-------0-------0-2-4-|
G|-6------4------2h4|p2--1--1----2--1----2--|-4------2h4p2---1--2/4|\2--1--1--1----1-2-4-|
D|------------------|------------4--2-------|-------------------4/6|\4--2-----2----------|
A|------------------|-----------------------|----------------------|---------------------|
E|------------------|-----------------------|----------------------|---------------------|


e|------------------|-----------------------|----------------------|------------------------|
B|-5------4------2h4|p2--0--0------------2--|-4------2h4p2---0-----|-------0----------------|
G|-6------4------2h4|p2--1--1----2--1----2--|-4------2h4p2---1--2/4|\2--1--1--1----6b8r6-4--|
D|------------------|------------4--2-------|-------------------4/6|\4--2-----2-----------6-|
A|------------------|-----------------------|----------------------|------------------------|
E|------------------|-----------------------|----------------------|------------------------|

e|------------|----------------------|-----*9b11--b11--b11r9-7---|--------------------------|
B|------------|----------------------|-----*6b8---b8----b8r6-4---|-12----11--9--11/12~------|
G|-4~---------|-(4~)-------6b8r6-4---|-4----6b8---b8----b8r6-4---|-13----11--9--11/13~------|
D|------------|--------------------6-|---------------------------|----------------------/13-|
A|------------|----------------------|---------------------------|--------------------------|
E|------------|----------------------|---------------------------|--------------------------|

e|------------------------------|-------------------------|--------------------------------|
B|-12-------14b16r14-12h14p12---|-12-------14b16-------12-|-(12)-------14b16r14-12h14p12---|
G|--------11-----------------13-|-------------------------|---------11------------------13-|
D|------------------------------|------------------/13----|--------------------------------|
A|------------------------------|-------------------------|--------------------------------|
E|------------------------------|-------------------------|--------------------------------|

e|*17~-----------------|-(*17~)-------------------|----------------------------|
B|-17---16---14--------|----------------*17-------|*17-------------------------|
G|----------------16---|--14----13/14-13----------|----------------------------|
D|---------------------|-----------------16-14-13-|-14~------------------------|
A|---------------------|--------------------------|----------------------------|
E|---------------------|--------------------------|----------------------------|



Play Verse Riff 1 & 2 Again

Lyrics: "Whoa, that funky feelin is what you need to get you through
         Yeah you wanna know, I'll tell you something 
         Don't let those troubles get to you
         Cause win or lose its alright"


Play Chorus Again


Solo 2 (3:01)
e|------------------|-----------------------|----------------------|---------------------|
B|-5------4------2h4|p2--0--0------------2--|-4------2h4p2---0-----|---------------0-2-4-|
G|-6------4------2h4|p2--1--1----2--1----2--|-4------2h4p2---1--2/4|\2--1--2--1----1-2-4-|
D|------------------|------------4--2-------|-------------------4/6|\4--2--4--2----------|
A|------------------|-----------------------|----------------------|---------------------|
E|------------------|-----------------------|----------------------|---------------------|

e|------------------|-----------------------|----------------------|-----------------------|
B|-5------4------2h4|p2--0--0------------2--|-4------2h4p2---0-----|-------------7b9r7-5-4-|
G|-6------4------2h4|p2--1--1----2--1----2--|-4------2h4p2---1--2/4|\2--1--2--1----9-8-6-4-|
D|------------------|------------4--2-------|-------------------4/6|\4--2------------------|
A|------------------|-----------------------|----------------------|-----------------------|
E|------------------|-----------------------|----------------------|-----------------------|

e|------------------|-----------------------|----------------------|---------------------|
B|-5------4------2h4|p2--0--0------------2--|-4------2h4p2---0-----|---------------0-2-4-|
G|-6------4------2h4|p2--1--1----2--1----2--|-4------2h4p2---1--2/4|\2--1--2--1----1-2-4-|
D|------------------|------------4--2-------|-------------------4/6|\4--2----------------|
A|------------------|-----------------------|----------------------|---------------------|
E|------------------|-----------------------|----------------------|---------------------|

e|------------------|----------------*4-*5--|*7-----*5h7p5--*4-*2h4|p2-*0------------------|
B|-5------4------2h4|p2--0--0------------2--|-4------2h4p2---0-----|-------0-----4b5-4-2-1-|
G|-6------4------2h4|p2--1--1----2--1----2--|-4------2h4p2---1--2/4|\2--1--1--1------------|
D|------------------|------------4--2-------|-------------------4/6|\4--2-----2------------|
A|------------------|-----------------------|----------------------|-----------------------|
E|------------------|-----------------------|----------------------|-----------------------|

e|------------------|-----------------------|------------------|---------------------|
B|-5------4------2h4|p2--0--0------------2--|-4------2---0-----|-------0-------0-2-4-|
G|-6------4------2h4|p2--1--1----2--1----2--|-4------2---1--2/4|\2--1--1--1----1-2-4-|
D|------------------|------------4--2-------|---------------4/6|\4--2-----2----------|
A|------------------|-----------------------|------------------|---------------------|
E|------------------|-----------------------|------------------|---------------------|

e|------------------|-----------------------|--------------------16b17-b17-r16-14h16p14\12-|
B|-5------4------2h4|p2--0--0------------12-|-14b16-b16-b16r14p12--------------------------|
G|-6------4------2h4|p2--1--1----2--1-------|----------------------------------------------|
D|------------------|------------4--2-------|----------------------------------------------|
A|------------------|-----------------------|----------------------------------------------|
E|------------------|-----------------------|----------------------------------------------|

e|-------12----------------|--------------------------------------------------|
B|-------------------------|--------------------------------------------------|
G|-13b14----11b13r11-------|--------------------------------------------------|
D|-------------------14-13-|--repeat first line of solo and fade out----------|
A|-------------------------|--------------------------------------------------|
E|-------------------------|--------------------------------------------------|




Key
| /  slide up
| \  slide down
| h  hammer-on
| p  pull-off
| ~  vibrato
| x  Mute note
| b  bend note
| r  release bend
|()  hold note out from previous bar
|pm  palm mute
Tap to rate this tab
 
# A B C D E F G H I J K L M N O P Q R S T U V W X Y Z