Song name
# A B C D E F G H I J K L M N O P Q R S T U V W X Y Z

Boston - Something About You tab

well here it is finally, a full length tab for "something about you". the intro 
tab for this song sounds right so just use that.



e|---------------------------------------------------------------------------------------|
B|------------------------------------------9--------------------------------------------|
G|--/9--/11-13-14-13h14p11---13-14--13-9-11---b11-b11-11-9----------b13-b13--13-11-9-8-9-|
D|---------------------------------------------------------11-11-11----------------------|
A|---------------------------------------------------------------------------------------|
E|---------------------------------------------------------------------------------------|

e|---------------------------------------------------------------------|
B|---------------------------------9-----------------------------------|
G|--13-14-13h14p11---13-14-9-11-----------6-----6-8-9-8-9-11-----9-9-9-|
D|-----------------------------------/6-9---4----------------9---9-9-9-|
A|---------------------------------------------------------------7-7-7-|
E|---------------------------------------------------------------------|


verse
            

e|-------------------------------------------------------------------|
B|-------------------------------------------------------------------|
G|--6-6-6--------------14----------------------------9-9-9-----------|
D|--6-6-6-----------14----14------------9-9-9---9-9--9-9-9--9-7-9----|
A|--4-4-4----/11-12----------14---------9-9-9---9-9--7-7-7--9-7-9----|
E|--------------------------------------7-7-7---7-7---------7-5-7----| x2
      when i was younger i thought i could stand on my own


e|----------------------------------------------------------------|
B|----------------------------------------------------------------|
G|--------------------------------------------------------7-------|
D|--7-7-9-7-7-9----2-2-2-2----9---7-7-9-7-7-9----2-2-2-2--7-------|
A|--7-7-9-7-7-9----2-2-2-2----9---7-7-9-7-7-9----2-2-2-2--5-------|
E|--5-5-7-5-5-7----0-0-0-0----7---5-5-7-5-5-7----0-0-0-0----------|
       and there was                 it brought a change 
       something about you           over me


e|---------------------------------------------------------------------------------|
B|---------------------------------------------------------------------------------|
G|---------------------------------------5---5----7---7-------9-9-9-9-9-9-9--------|
D|--7-7-7-7-7-7-7-----------4--7---------5---5----7---7-------9-9-9-9-9-9-9--------|
A|--7-7-7-7-7-7-7-----------4--7---------3---3----5---5-------7-7-7-7-7-7-7--------|
E|--5-5-5-5-5-5-5-----------2--5---------------------------------------------------|
      I've got this feeling inside got to have ya have ya     ain't no good to hide



chorus

e|-----------------------------------------------------------------|
B|-----------------------------------------------------------------|
G|--9-9-9----------------------------------------------------------|
D|--9-9-9----9-9-9-9---11-11-11---9--7-7-7-7-7-7-7-7-7----9---9----|
A|--7-7-7----9-9-9-9---11-11-11---9--7-7-7-7-7-7-7-7-7----9---9----|
E|-----------7-7-7-7---9--9--9----7--5-5-5-5-5-5-5-5-5----7---7----|
   it wasn't easy   to show        well this feeling inside girl

e|-----------------------------------------------------------------------|
B|-----------------------------------------------------------------------|
G|--9-9-9---------------------------------------------------------9-9-9--|
D|--9-9-9----9-9-9-9---11-11-11---9--7-7-7-7-7-7-7-7-7----9---9---9-9-9--|
A|--7-7-7----9-9-9-9---11-11-11---9--7-7-7-7-7-7-7-7-7----9---9---7-7-7--|
E|-----------7-7-7-7---9--9--9----7--5-5-5-5-5-5-5-5-5----7---7----------|
   it wasn't easy   i know         when you believe in a man   like me


the second verse and second chorus are the same as the first


Solo

e|-------------------------------------------12----12h14p12------|
B|--------------7-9-9h10p9-7-5-4--4-------12----12---------------|
G|--11----6-8-9---------------------6-4---------------------11---|
D|---------------------------------------------------------------|
A|---------------------------------------------------------------|
E|---------------------------------------------------------------|

e|-----------------------------------------------------------------16-19--|
B|------------------------14-14-12-11h12p11------------14-16-17-19--------|
G|--b16-14-13-14h13-11----------------------13-11-------------------------|
D|---------------------14-------------------------13----------------------|
A|------------------------------------------------------------------------|
E|------------------------------------------------------------------------|




add this to the end of the last chorus

e|--------------------------------------------------------------------------------------------------|
B|--------------------------------------------------------------------------------------------------|
G|--------------------------------------------------------------------------------------------------|
D|-----------9-9-9-9-9------7----9-9-9-9-9--7----9-9-9-9-9--7----9-9-9-9-9------------------------9-|
A|-----------9-9-9-9-9------7----9-9-9-9-9--7----9-9-9-9-9--7----9-9-9-9-9------------------------9-|
E|-----------7-7-7-7-7------5----7-7-7-7-7--5----7-7-7-7-7--5----7-7-7-7-7------------------------7-|
  when you believe in a man like me         like me         can't ya see     i got to got to have you

     

end solo

e|-------------------------------------------------------------------------------|
B|-------------------------------9--------------------------------------12-------|
G|--13-14-13h14p11---13-14-9-11----b11-b11-11-9--------- b13-b13--13-11----------|
D|----------------------------------------------11-11-11-------------------------|
A|-------------------------------------------------------------------------------|
E|-------------------------------------------------------------------------------|

e|---------------------16-14----19----------------------------------------------------------------|
B|-------------12-b12--------17----------------------7-9-10-12------------------------------------|
G|--b12-b12-11---------------------------6-----6-8-9------------9-9-9---b11-b11-b11-b11-b11-11-9--|
D|-----------------------------------6-9---4--------------------9-9-9-----------------------------|
A|--------------------------------------------------------------7-7-7-----------------------------|
E|------------------------------------------------------------------------------------------------|



e|--------------------------------------------------------------------------|
B|--------------------------------------------------------------------------|
G|--------------------------------------------------9-9-9-9-x-x-x-1---------|
D|--7-7-7-7-9-9-9-9-9-9-9-9-9-9-9-9-9-9-\6--6-6-6---9-9-9-9-x-x-x-2---------|
A|--7-7-7-7-9-9-9-9-9-9-9-9-9-9-9-9-9-9-\6--6-6-6---7-7-7-7-x-x-x-2---------|
E|--5-5-5-5-9-9-9-9-9-9-9-9-9-9-9-9-9-9-\4--4-4-4-----------------0---------|
    well there was something about you well there was something about you oh


That should be it. I'm pretty sure it's right because i put a lot of effort into 
it to make sure it's right, so enjoy!

                                                   

                                                     RIP. Brad Delp
Tap to rate this tab
# A B C D E F G H I J K L M N O P Q R S T U V W X Y Z