Song name
# A B C D E F G H I J K L M N O P Q R S T U V W X Y Z

Boston - Feelin Satisfied tab

People have forgotten about Boston - fuck them. Boston is awesome! Not to mention,
great stoner music. As a matter of fact, I'm stoned while writing this tab, but I'll make
it's perfect! I just need a little more "INSPIRATION!" Durka, Durka, Dankish! Okay here 
is...in bar-chord version, no solo.

Standard E Tuning (E,A,D,G,B,E,)

(p) means palm mute note
(*) let note ring out

Intro and Interlude

[----------------------]   x3   then [----------------------]
[------------5---5--5--]             [----------------------]
[-444-4-44---4---4--4--]             [---------22222--------]
[-444-4-44---2---2--2--]             [-7-6-4-2-22222--------]
[-222-2-22--0--00--0---]             [-7-6-4-2-00000--------]
[----------------------]             [-5-4-2-0--------------]
            p  pp  p

Verses

[----------------------------------]  [------------------------------------]
[-5-----5---5-----5---------3-3----]  [-5-----5---5-----5------------------]
[-4-----4---4-----4-2-------2-2-22-]  [-4-----4---4-----4---2------4444-44-]
[-2-222-2-2-2-222-2-2-------2-2-22-]  [-2-222-2-2-2-222-2-2-2------4444-44-]
[-------------------0-00000-0-0-00-]  [---------------------0-0000-2222-22-]
[----------------------------------]  [------------------------------------]
    ppp   p   ppp     ppppp               ppp   p   ppp   p   pppp

Pre Chorus'

[---------------------------------]  [----------------] x3 then  [---------]
[---------------------------------]  [----------------]          [---------]
[-6-6-66--4-4-44--2-2-22----------]  [-6-6-66--4-4-44-]          [-2-2-2*--]
[-6-6-66--4-4-44--2-2-22-2-----22-]  [-6-6-66--4-4-44-]          [-2-2-2*--]
[-4-4-44--2-2-22--0-0-00-2-----22-]  [-4-4-44--2-2-22-]          [-0-0-0*--]
[------------------------0-000-00-]  [----------------]          [---------]
                           ppp

Chorus'

[------------------------------------] x4
[------------------------------------]
[-6---4---2---------4--2--------4----]
[-6---4---2-62-62-6-4--2-6-44-2-4-2*-]
[-4---2---0-62-62-6-2--0-6-44-2-2-2*-]
[-----------40-40-4------4-22-0---0*-]
Tap to rate this tab
# A B C D E F G H I J K L M N O P Q R S T U V W X Y Z