Song name
# A B C D E F G H I J K L M N O P Q R S T U V W X Y Z

Boston - Peace Of Mind tab

-------------------------------------------------------------------------------
			     Peace of Mind - Boston
-------------------------------------------------------------------------------
Tabbed by: Radar
Email: radar_loves_you@yahoo.com

Tuning: Standard


Okay, I've read the other tabs, and one seemed pretty accurate, but I noticed a few
and thought I'd correct them. There were also a few parts that I felt were missing.

Also, I chopped a lot of the riffs into easy-to-chew segments that I believe will be
to learn. Another thing is that this is how I play the song, and I have my own picking
and preferences, so don't take every single chord or note to heart as being part of the 
this is just to give you the main idea of the song.

Intro-
Acoustic or Clean

Note: The last two chords are quick and sort of quiet, but they're there. Also, the
finger notes are pretty much optional, but they give the intro its' signature texture.

e|----------------------------------------------------------------|
B|-----5---------------------9------------------------------------|
G|-----6----6---x--x--x--x---9-------9----------------------------|
D|-----6----7---x--x--x--x---9---9---9--9-------------------------|  x6
A|-----4----7---x--x--x--x---7---9---7--9-------------------------|
E|----------5---x--x--x--x-------7------7-------------------------|

Intro Lead (Acoustic/Clean riff still plays)

e|--------------------------------------------------------------|
B|--------------------------------------------------------------|
G|--------------------------------------------------------------|
D|----6--4------------------4-----------------------------------|
A|----------7--4---4--6--7-----6--7--6----4---4-----------------|
E|-------------------------------------7------------------------|

Intro lead continued

e|-----------------------------------------------------------|
B|-----------------------------------------------------------|  Repeat
G|-----------------------------------------------------------|  Entire
D|-------4--6--7--4--6--4h6p4--------------------------------|  Riff
A|----7------------------------7--4--------------------------|  2 Times
E|-----------------------------------------------------------|

Pre Verse

e|------------------------------------------------------------------|
B|---9--10--9---9--9--10--9--10--9----------------------------------|
G|---9--9---9---9--9--9---9--9---9----------------------------------|
D|---9--11--9---9--9--11--9--11--9----------------------------------|
A|------------------------------------------------------------------|
E|------------------------------------------------------------------|

Pre Verse Continued

e|----------------------------------------------------------------|
B|---9--9--10--9---10/12--12--10-------------9--------------------|
G|---9--9--9---9---11/13--13--11-------------9--------------------|
D|---9--9--11--9------------------11--9------9--------------------|
A|---------------------------------------11-----------------------|
E|----------------------------------------------------------------|

Verse (I'm not sure exactly where the pull offs are or how they're done here, so this is
basic template of the verse riff, try to figure out the hammer ons/pull offs yourself
you like. And yes, you must use your pinky heavily for this one.)

e|-------------------------------------------------------------------|
B|-------------------------------------------------------------------|
G|-------------------------------------------------------------------|
D|---9--11--9----9--9--11--9--11--9----------------------------------|
A|---7--7---7----7--7--9---7--7---7----------------------------------|
E|-------------------------------------------------------------------|

Verse continued (I'm not entirely sure that the pull offs are right)

e|-----------------------|-----------------|--------------------------|
B|-----------------------|-----------------|--------------------------|
G|-----------------------|-----------------|--------------------------|
D|---7--7--7--7--------9-|----------9h11p9-|--------------------------|
A|---5--5--5--5--7--7--7-|--9h11p9---------|---9--9--9--9--9----------|
E|---------------5--5----|-----------------|---7--7--7--7--7----------|
     This one after the first time ^ This one after the second ^

Chorus (Pretty much the same as the acoustic/clean intro part, except there are no muted
I'm not sure if you include the middle finger note this time)

e|----------------------|----------------------------------------|
B|----------------------|----------------------------------------|
G|---6-----7-----7------|----------------------------------------|
D|---6--7--7--7--7--7---|--7-------------------------------------|
A|---4--7--9--7--9--7---|--7-------------------------------------|
E|------5-----9-----9---|--5-------------------------------------|
         x4                Final time

Repeat pre-verse

e|------------------------------------------------------------------|
B|---9--10--9---9--9--10--9--10--9----------------------------------|
G|---9--9---9---9--9--9---9--9---9----------------------------------|
D|---9--11--9---9--9--11--9--11--9----------------------------------|
A|------------------------------------------------------------------|
E|------------------------------------------------------------------|

Pre Verse Continued

e|----------------------------------------------------------------|
B|---9--9--10--9---10/12--12--10-------------9--------------------|
G|---9--9--9---9---11/13--13--11-------------9--------------------|
D|---9--9--11--9------------------11--9------9--------------------|
A|---------------------------------------11-----------------------|
E|----------------------------------------------------------------|

Repeat verse

e|-------------------------------------------------------------------|
B|-------------------------------------------------------------------|
G|-------------------------------------------------------------------|
D|---9--11--9----9--9--11--9--11--9----------------------------------|
A|---7--7---7----7--7--9---7--7---7----------------------------------|
E|-------------------------------------------------------------------|

Verse continued

e|-----------------------|-----------------|--------------------------|
B|-----------------------|-----------------|--------------------------|
G|-----------------------|-----------------|--------------------------|
D|---7--7--7--7--------9-|----------9h11p9-|--------------------------|
A|---5--5--5--5--7--7--7-|--9h11p9---------|---9--9--9--9--9----------|
E|---------------5--5----|-----------------|---7--7--7--7--7----------|
     This one after the first time ^ This one after the second ^

Repeat Chorus

e|-----------------|----------------------------------------|
B|-----------------|----------------------------------------|
G|---6---7---7-----|----------------------------------------|
D|---6-7-7-7-7-7---|--7-------------------------------------|
A|---4-7-9-7-9-7---|--7-------------------------------------|
E|-----5---9---9---|--5-------------------------------------|
         x4                Final time

Post Chorus (Now here's where things get really fun. =D)

e|--------------------------------------------------------|
B|--------------------------------------------------------|
G|---4-4-4-4-4-----2---6---9------------------------------|
D|---4-4-4-4-4-----2---6---9------------------------------|   x4
A|---2-2-2-2-2-----0-0-4-0-7------------------------------|
E|-------------2-4----------------------------------------|


Solo (Yippee, the fun part. Anyways, the sections are seperated for each guitar since
are two guitars playing it, but not at the same time. You can play it on one guitar, but
actual version has two guitars trading off parts)

Guitar 1

e|-----------------------------------------------------------------|
B|-----------------------------------------------------------------|
G|--------------4h6p4---4-7b-7-6-4h6p4-----------------------------|
D|--------2-4/6-------6----------------7---------------------------|
A|----2-4--------------------------------7-------------------------|
E|--4--------------------------------------7-5-4-------------------|

Guitar 2

e|---------------------------------------------------------------|
B|----9h10p9-----------------------------------------------------|
G|--9--------12-11-12b-12-11-9h11p9-----------9------------------|
D|----------------------------------12-11------------------------|
A|----------------------------------------12---------------------|
E|---------------------------------------------------------------|

Guitar 1 (Note: I like to do the final bend on the 21rst fret of the high E string, it's
preference, and I know it's not correct, but I believe it sounds better, the correct
is to bend on 19th fret of the B string)

e|--------------------------------19-21b-------------------------------|
B|-----17----19b-19-17h19p17----19b------------------------------------|
G|--18----18-----------------18----------------------------------------|
D|---------------------------------------------------------------------|
A|---------------------------------------------------------------------|
E|---------------------------------------------------------------------|

Guitar 2 (Note: It's extremely important that you hold the bend here and strike the High
string note while holding the bend and then release the bend when you play the final
notes)

e|-----------------------7-------------------------------------------|
B|-------------------------------------------------------------------|
G|----------4h6p4---4-6b---6-4---------------------------------------|
D|--4-5-6-7-------6--------------------------------------------------|
A|-------------------------------------------------------------------|
E|-------------------------------------------------------------------|

Both guitars play this next part at exactly the same time. And when you bend on the 18th
just like with guitar 2's part, you hold it for the next note then release it.

e|---------------16-19-----------------------------------------------|
B|------------19-----------------------------------------------------|
G|-----16-18b--------------------------------------------------------|
D|--18---------------------------------------------------------------|
A|-------------------------------------------------------------------|
E|-------------------------------------------------------------------|

Okay, there's a harmony for this next part. I'll write them up seperatly.

Guitar 1

e|----------------------------------------------------------------------|
B|----------------------------------------------------------------------|
G|---------------8-9-11-8-9-8h9p8---------11b-11-9h11p9-----------------|
D|--9-11-11---11------------------9-11-11---------------14-13-----------|
A|------------------------------------------------------------9---------|
E|----------------------------------------------------------------------|

Harmony to the part above

Guitar 2

e|-------------------------------------------------------------------------|
B|-----------7-9-10----8-7h8p7-------9b-9-7h9p7----------------------------|
G|--7-8-8--8--------11---------7-8-8------------9-8------------------------|
D|--------------------------------------------------9----------------------|
A|-------------------------------------------------------------------------|
E|-------------------------------------------------------------------------|


Guitar 1

e|-----------------------------------------------------------------------|
B|-----------------------------------------------------------------------|
G|---------------8-9-11-8-9-8h9p8---------11b-11-9h11p9-------8h9p8------|
D|--9-11-11---11------------------9-11-11---------------14-13-------13---|
A|--------------------------------------------------------------------14-|
E|-----------------------------------------------------------------------|


Harmony to part above

e|-------------------------------------------------------------------|
B|-----------7-9-10----8-7h8p7-------9b-9-7h9p7----------------------|
G|--7-8-8--8--------11---------7-8-8------------9-8------------------|
D|-------------------------------------------------------------------|
A|-------------------------------------------------------------------|
E|-------------------------------------------------------------------|

Then this small part completes the solo

e|------------16b-----------------------------------------|
B|---------14---------------------------------------------|
G|---14-16---------9~-------------------------------------|
D|-----------------9~-------------------------------------|
A|-----------------7~-------------------------------------|
E|--------------------------------------------------------|

Pre-verse

e|------------------------------------------------------------------|
B|---9--10--9---9--9--10--9--10--9----------------------------------|
G|---9--9---9---9--9--9---9--9---9----------------------------------|
D|---9--11--9---9--9--11--9--11--9----------------------------------|
A|------------------------------------------------------------------|
E|------------------------------------------------------------------|

Pre Verse Continued

e|----------------------------------------------------------------|
B|---9--9--10--9---10/12--12--10-------------9--------------------|
G|---9--9--9---9---11/13--13--11-------------9--------------------|
D|---9--9--11--9------------------11--9------9--------------------|
A|---------------------------------------11-----------------------|
E|----------------------------------------------------------------|

Verse

e|-------------------------------------------------------------------|
B|-------------------------------------------------------------------|
G|-------------------------------------------------------------------|
D|---9--11--9----9--9--11--9--11--9----------------------------------|
A|---7--7---7----7--7--9---7--7---7----------------------------------|
E|-------------------------------------------------------------------|

Verse continued

e|-----------------------|-----------------|--------------------------|
B|-----------------------|-----------------|--------------------------|
G|-----------------------|-----------------|--------------------------|
D|---7--7--7--7--------9-|----------9h11p9-|--------------------------|
A|---5--5--5--5--7--7--7-|--9h11p9---------|---9--9--9--9--9----------|
E|---------------5--5----|-----------------|---7--7--7--7--7----------|
     This one after the first time ^ This one after the second ^

Chorus

e|-----------------|----------------------------------------|
B|-----------------|----------------------------------------|
G|---6---7---7-----|----------------------------------------|
D|---6-7-7-7-7-7---|--7-------------------------------------|
A|---4-7-9-7-9-7---|--7-------------------------------------|
E|-----5---9---9---|--5-------------------------------------|
         x4                Final time


Post Chorus

e|--------------------------------------------------------|
B|--------------------------------------------------------|
G|---4-4-4-4-4-----2---6---9------------------------------|
D|---4-4-4-4-4-----2---6---9------------------------------|   x4
A|---2-2-2-2-2-----0-0-4-0-7------------------------------|
E|-------------2-4----------------------------------------|

They add this to the end of it after this time (Although I'm not sure about the lead
the final time through)

e|--------------------------------------------------|
B|--------------------------------------------------|
G|--2---6---9---------------------------------------|
D|--2---6---9---------------------------------------| x4
A|--0-0-4-0-7---------------------------------------|
E|--------------------------------------------------|

I know that you repeat the intro with distortion and that there's this whole other part
it repeats the first lead and adds on multiple harmonies, but I haven't gotten around to
that yet, and it might be awhile until I'm motivated to do it. When I do, I'll tab it as 
solo

| /  slide up
| \  slide down
| h  hammer-on
| p  pull-off
| ~  vibrato
| +  harmonic
| x  Mute note
===============================================================================
Tap to rate this tab
 
# A B C D E F G H I J K L M N O P Q R S T U V W X Y Z