Song name
# A B C D E F G H I J K L M N O P Q R S T U V W X Y Z

Boston - More Than A Feeling tab

e|--------------------------------------------------------------------------|
b|-------7--7-8-7h8p7-----------8-7-5h7p5---5-7-7---8-7h8p7-----------------|
g|-6-7-9--------------9-7-10--7-----------7-------7---------9-7-9b11-7-6----|
d|-----------------------------------------------------------------------7--|
a|--------------------------------------------------------------------------|
e|--------------------------------------------------------------------------|

e|--------------------------------------------------------------------------|
b|---7--7-8-7h8p7-----10b12-10-8-7h8p7---7---8-7h8p7------------------------|
g|----------------9-7------------------9---7---------9-7-9--7/11-9h11p9-----|
d|-7------------------------------------------------------------------------|
a|--------------------------------------------------------------------------|
e|--------------------------------------------------------------------------|

e|-------------------------17b19--------------------------------------------|
b|------------14h15p14------------------------------------------------------|
g|---------------------16---------------------------------------------------|
d|-12-11-12-----------------------------------------------------------------|
a|--------------------------------------------------------------------------|
e|--------------------------------------------------------------------------|
Tap to rate this tab
# A B C D E F G H I J K L M N O P Q R S T U V W X Y Z