Guitaretab - guitar tabs
Song name
# A B C D E F G H I J K L M N O P Q R S T U V W X Y Z

Boston - Higher Power tab

Higher Power
Boston
Tabbed By: Chris Couillard

\-slide down
/-slide up
~-tremolo

Intro:
Guitar 1 (Muted w/ Medium Distortion)   2x
|---------------------------------------|
|---------------------------------------|
|---------------------------------------|
|--12--12--12-12\7-7-7/8--8--8-8/10-10--|
|--12--12--12-12\7-7-7/8--8--8-8/10-10--|
|--10--10--10-10\5-5-5/6--6--6-6/8--8---|


Guitar 1                                4x
|---------------------------------------|
|---------------------------------------|
|---------------------------------------|
|--12--12--12-12\7-7-7/8--8--8-8/10-10--|
|--12--12--12-12\7-7-7/8--8--8-8/10-10--|
|--10--10--10-10\5-5-5/6--6--6-6/8--8---|
[ Tab from: http://www.guitaretab.com/b/boston/35219.html ]
Guitar 2 (With Medium Distortion)                                                             1st Time
|---------------------------------------------------------------------------|
|---------------------------------------------------------------------------|
|-------------------------------------------------------------14--12----12--|
|--12--15-14--12--12--12-12-12-----12----12----------------15--------15-----|
|------------------------------15-----15-----10-12--12-13-------------------|
|---------------------------------------------------------------------------|

Guitar 2                                                              2nd Time
|---------------------------------------------------------------------------|
|---------------------------------------------------------------------------|
|---------------------------------------------------------------------------|
|--12--15-14--12--12--12-12-12-----12----12---------------------------------|
|------------------------------15-----15-----10-12--12-13--12--10~~~--------|
|---------------------------------------------------------------------------|

Guitar 1          2x
|--------------|
|--------------|
|--------------|
|-*15--15\13---|
|--15--15\13---|
|--13--13\11---|
*PM 16th notes (24 notes or 1 measures)

Guitar 1            
|------------------|------------------|
|------------------|------------------|
|----**------------|----**------------|
|-*5--8/10--*5--3--|-*5--8/10--*5--2--|
|--5--8/10---5--3--|--5--8/10---5--2--|
|--3--6/8----3--1--|--3--6/8----3--0--|
*PM 16th notes (24 notes or 1 measures)
**Last two notes are longer than muted notes.
Related for Higher Power tab