Song name
# A B C D E F G H I J K L M N O P Q R S T U V W X Y Z

Boston - Were Ready tab

I'm pretty sure this is right. The solo might need a little work but the rest is here.

/-slide
~-vibrato
b-bend

Verse
e|----------------------------------|
b|----------------------------------|
g|----9-----------------------------|x4
d|----9---9--7----6/7-7-6-----------|
a|----7---6--4----x-x-x-x-----------|
e|----------------7/9-9-7--2/3~--5~-|

On the fourth time do not play the last three notes, instead just start the Prechorus.

Prechorus
e|---------------------------------------------------------------------|
b|---------------------------------------------------------------------|
g|---------------------2-4-5----7----------------------4-4-6-6-7-7-7-7-|
d|2-4-5----9----7------2-4-5----7----5------2------7---4-4-6-6-7-7-7-7-|
a|2-4-5----9----7------0-2-3----5----5------2------7---2-2-4-4-5-5-5-5-|
e|0-2-3----7----5--------------------3------0------5-------------------|

e|------------|
b|------------|
g|------------|
d|12-12-12-12-|
a|10-10-9--9--|
e|------------|

Chorus
e|-------------------------------------|
b|-------------------------------------|
g|-------------------------------------|
d|----2~-----4-4-4-2----2~-----4-4-4-2-|
a|----2~-----4-4-4-2----2~-----4-4-4-2-|
e|----0------2-2-2-0----0------2-2-2-0-|

Repeat Verse only 2 times

Repeat Prechorus

Repeat Chorus 4 times

Solo
e|--------------------------------------------------------------16-14-----|
b|----14-16-17~-16-14----17-16-14----14--16--17--14--16--17--14-------16~-|
g|-16-----------------16----------16--------------------------------------|
d|------------------------------------------------------------------------|
a|------------------------------------------------------------------------|
e|------------------------------------------------------------------------|

e|----------------------22b24-20-18h19p18-16-14-16b17b16-14---16b17b16-14--|
b|---------14-16/17/16-------------------------------------17------------17|
g|-16----------------------------------------------------------------------|
d|---16--------------------------------------------------------------------|
a|-------------------------------------------------------------------------|
e|-------------------------------------------------------------------------|

e|-20b21b20-------------------------------------------------|
b|----------19-17-19p17h19p17h1917-16~----------------------|
d|-------------------------------------------2--------------|
g|-------------------------------------------2--------------|
a|-------------------------------------------0--------------|
e|----------------------------------------------------------|

Repeat Verse only 3 times

Repeat Prechorus

Repeat Chorus 4 times

Repeat Solo

Note: During the second time playing the solo there are a few minor changes but no one 
really notice if you don't play the changes so you can just play the same solo again

Repeat Verse 3 more times and end on
e|-----|
b|-----|
g|-----|
d|-7---|
a|-4---|
e|-----|

That is it. If your guitar doesn't have 22 frets it is ok. Mine doesn't either but when 
that part maybe you could play that one note an octave lower or sumthing.
Tap to rate this tab
 
# A B C D E F G H I J K L M N O P Q R S T U V W X Y Z