Guitaretab - guitar tabs
Song name
# A B C D E F G H I J K L M N O P Q R S T U V W X Y Z

Botch - Swimming The Channel Vs Driving The Chunnel tab

Song: Swimming The Channel Vs. Driving The Chunnel
Artist: Botch
Album: We Are The Romans

Tabbed by: garyhann
Email: garyhann@live.co.uk

Tuning: Drop D


  0:00
e|-------------------------------------------------------|
B|-------------------------------------------------------|
G|-------------------------------------------------------|
D|----3-----6--------5~-------13------0~-------8~---\\\--|
A|-------------------------------------------------------|
D|--3---3/5---5-6~--------/12----12-8---8-6~-------------|


  0:48
e|--------------------------------------------------------------|
B|--------------------------------------------------------------|
G|--------------------------------------------------------------|
D|-----3-----6--------5-5-5-----13------0~-----15-------17------|
A|--------------------------------------------------------------|
D|--3----3-5---5-6~---------/12----12-8---8-12----12-15----15\--|


  0:59 
e|-----------------------------------------------------------|
B|-----------------------------------------------------------|
G|-----------------------------------------------------------|
D|----3-----6--------5~-------13------0~-----13-------15-----|
A|-----------------------------------------------------------|
D|--3---3-5---5-6~--------/12----12-8---8-12----12-15----15--|

[ Tab from: http://www.guitaretab.com/b/botch/185229.html ]
  1:12
e|--------------------------------------------|
B|--------------------------------------------|
G|-------------------[x5]---------------------|
D|-----13------0~-------------13-------15-----|
A|--------------------------------------------|
D|--12----12-8----8--------12----12-15----15--|


  1:41
e|-------------------------------------------------------------|
B|-------------------------------------------------------------|
G|-------------------------------------------------------------|
D|-----3-----6--------5-5-5-----13------0~-----13-------15-15--|
A|-------------------------------------------------------------|
D|--3----3-5---5-6~---------/12----12-8---8-12----12-13--------|


  1:53
e|--------------------------------------------------------------------------------|
B|--------------------------------------------------------------------------------|
G|---------------------------------------[x3]-------------------------------------|
D|--17-17-17-----------------------------------17-17--17--------------------------|
A|--------------------------------------------------------------------------------|
D|-----------13-13-13-15-15-15-15-15-15------------------13-13-13-15~----15\\\\\--|


2:17
e|-----------------------------------------------------|
B|-----------------------------------------------------|
G|--5~----------9~----------10~----------9~------------|
D|--0~----------0~----------0~-----------0~------------|
A|--7~----------7~----------8~-----------7~------------|
D|--7~----------7~----------8~-----------7~------------|

Keep playing this final section but at 2:41 before you lightly strike each chord turn your 
 guitarís volume right down and after you hit each chord slowly turn the volume up whilst 
                 holding each chord create an almost violin-like effect.

Related for Swimming The Channel Vs Driving The Chunnel tab