Song name
# A B C D E F G H I J K L M N O P Q R S T U V W X Y Z

Botch - Framce tab

Dropped d

1. Part:


1. Guitar
---14-14---15---|
---19-19---19b--|
----------------|
----------------|
----------------|
----------------|

2. Guitar
----------------|
---19-19--------|
----------------|
---16-16--------|
----------------|
----------------|


4x
_________________

2. Part


1. Guitar
-------------------------------------------------------------------|
---7--7--7----------7--7--7----------7--7--7-----------------------|
----------7p6--------------7p6--------------7p6--------------------|
-------------5p4h5------------5p4h5------------5p4h5---------------|
---------------------------------------------------5h6p5-2h3p2--5/-|
----------------------------------------------------------------5/-|

2. Guitar
---15-15-----------15-15------------15-15--------------------------|
---19-19-----------19-19------------19-19--------------------------|
-------------------------------------------------------------------|
-------------------------------------------------------------------|
-------------------------------------------------------------------|
-------------------------------------------------------------------|


4x
__________________

1. Part:


1. Guitar
---14-14---15---|
---19-19---19b--|
----------------|
----------------|
----------------|
----------------|

2. Guitar
----------------|
---19-19--------|
----------------|
---16-16--------|
----------------|
----------------|


4x
___________
2. Part


1. Guitar
-------------------------------------------------------------------|
---7--7--7----------7--7--7----------7--7--7-----------------------|
----------7p6--------------7p6--------------7p6--------------------|
-------------5p4h5------------5p4h5------------5p4h5---------------|
---------------------------------------------------5h6p5-2h3p2--5/-|
----------------------------------------------------------------5/-|

2. Guitar
---15-15------------15-15-----------15-15--------------------------|
---19-19------------19-19-----------19-19--------------------------|
-------------------------------------------------------------------|
-------------------------------------------------------------------|
-------------------------------------------------------------------|
-------------------------------------------------------------------|



1. Guitar
--------------------------------------------------------------------|
---7--7--7----------7--7--7----------7--7--7------------------------|
----------7p6--------------7p6--------------7p6---------------------|
-------------5p4h5------------5p4h5------------5p4h5----------------|
---------------------------------------------------5h6p5-2h3p2--2-5-|
----------------------------------------------------------------2-5-|

2. Guitar
---15-15------------15-15-----------15-15--------------------------|
---19-19------------19-19-----------19-19--------------------------|
-------------------------------------------------------------------|
-------------------------------------------------------------------|
-------------------------------------------------------------------|
-------------------------------------------------------------------|

1x
__________________

3. Part



1. and 2. Guitar
-----------------------------------------------------|
-----------------------------------------------------|
-----------------------------------------------------|
---54----54----54----54-----535---535---535---535----|
-4--4--4--4--4--4--4--4---3l----3l----3l----3l-------|
-4--4--4--4--4--4--4--4---3l----3l----3l----3l-------|


4x
____________________

4. Part



1. Guitar
----15--15--15--15--15--15---19--19--19--19--19--19--|
---19--19--19--19--19--19---23--23--23--23--23--23---|
-----------------------------------------------------|
-----------------------------------------------------|
-----------------------------------------------------|
-----------------------------------------------------|

2. Guitar
-----3---3---3---3---3---3----7---7---7---7---7---7---|
---7---7---7---7---7---7----11--11--11--11--11--11----|
------------------------------------------------------|
------------------------------------------------------|
------------------------------------------------------|
------------------------------------------------------|

4x
__________________
5. Part



1. and 2. Guitar
-----------------------------------------------------|
-----------------------------------------------------|
-----------------------------------------------------|
-----------------------------------------------------|
--4-4-4-4-4-3-3-3----4-4-4-3-3-3-3-3-----------------|
--4-4-4-4-4-3-3-3----4-4-4-3-3-3-3-3-----------------|

4x
__________________

Last Part


1. Guitar
-------------------------------------15-----15-----15-----15------|
-----------------------------------19--19-19--19-19--19-19--19----|
------------------------------------------------------------------|
-----/17-----/17-----/17-----/17----------------------------------|
--4-------4-------4-------4---------------------------------------|
--4-------4-------4-------4---------------------------------------|


2. Guitar
-----------------------------------------------------|
-----------------------------------------------------|
-----------------------------------------------------|
-----------------------------------------------------|
--4-------4-------4-------4--------------------------|
--4--/17--4--/17--4--/17--4--/17---------------------|


4x


1. Guitar
-----------------------------------------------------|
-----------------------------------------------------|
-----------------------------------------------------|
-----/17-----/17-----/17-----/17---------------------|
--4-------4-------4-------4--------------------------|
--4-------4-------4-------4--------------------------|


2. Guitar
-----------------------------------------------------|
-----------------------------------------------------|
-----------------------------------------------------|
-----------------------------------------------------|
--4-------4-------4-------4--------------------------|
--4--/17--4--/17--4--/17--4--/17---------------------|




I hope this tabs are right xD


*****************************


b= bend
l= let ring
/= slide
h= hammer-on
p= pull-off
Tap to rate this tab
 
# A B C D E F G H I J K L M N O P Q R S T U V W X Y Z