Song name
# A B C D E F G H I J K L M N O P Q R S T U V W X Y Z

Botch - Japam tab

-------------------------------------------------------------------------------
                             BOTCH - JAPAM
-------------------------------------------------------------------------------
Had a request to tab this so i did. There isnt many Botch tabs on this site so
hopefully this helps some people.

You can check out my cover of this song here: http://www.youtube.com/watch?
v=uXe8BbQJz6k&list=UUXHZU5N6ZWEWQQi_qKzkdBg&index=4&feature=plcp

Tuning: Drop D (DADGBe

e|-----0-1-1-3-----------0-2-0-----------------------------------------------|
B|-----0-0-0-0-----------0-0-0-----------------------------------------------|
G|---------------------------------------------------------------------------|
D|-3-----------------3-------------------------------------------------------|
A|-1-----------------3-------------------------------------------------------|
D|-------------------3-------------------------------------------------------| 4x


e|--7-7-9-10-10--|-------------------------0-2-0-----------------------------|
B|--0-0-0--0--0--|-------------------------0-0-0-----------------------------|
G|---------------|----------------------------------------8x-----------------| (repeat
D|-------------4x|---------------------3-------------------------------------|this line
A|---------------|---------------------3-------------------------------------|  2x)
D|---------------|---------------------3-------------------------------------|


e|-----0-1-1-3-----------0-2-0-----------------------------------------------|
B|-----0-0-0-0-----------0-0-0-----------------------------------------------|
G|---------------------------------------------------------------------------|
D|-3-----------------3-------------------------------------------------------|
A|-1-----------------3-------------------------------------------------------|
D|-------------------3-------------------------------------------------------| 4x


e|------------------------------------------------------------------------------|
B|------------------------------------------------------------------------------|
G|------------------------------------------------------------------------------|
D|-3-3-3--6-6-6-6--6-6-6--5-5-5--5-5--3-3---------------------------------------|
A|-3-3-3-----------6-6-6----------5-5-------------------------------------------|
D|-3-3-3-----------6-6-6----------5-5-------------------------------------------| 4x

just open strum
this chord
 a few times.
e|--0~~-------------------------------------------------------------------------|
B|--0~~-------------------------------------------------------------------------|
G|--4~~----7-8--20-///////------------------------------------------------------|
D|--x~~----x-x---x-///////------------------------------------------------------|
A|--2~~----5-6--18-///////------------------------------------------------------|
D|------------------------------------------------------------------------------|

repeat the above 2 lines.

e|-----------------------------------------------------------------------------|
B|-----------------------------------------------------------------------------|
G|-----------------------------------------------------------------------------|
D|---6---5---3-----------------------------------------------------------------|
A|------------------4x--end on-------------------------------------------------|
D|-3---6---5-------------------3-----------------------------------------------|

e|------------------------------------------------------------------------------|
B|------------------------------------------------------------------------------|
G|------------------------------------------------------------------------------|
D|-3-3-3--6-6-6-6--6-6-6--5-5-5--5-5-5--3-3-3-----------------------------------|
A|-3-3-3-----------6-6-6----------5-5-5-----------------------------------------|
E|-3-3-3-----------6-6-6----------5-5-5-----------------------------------------| 4x

e|---------------------------------------------------------------------------|
B|---------------------------------------------------------------------------|
G|---------------------------------------------------------------------------|
D|-3---------6----------5----------------------------------------------------|
A|-3---------6----------5----------------------------------------------------|
D|-3---/20/--6----/20/--5-----/20/-------------------------------------------| 4x

e|------------------------------------------------------------------------------|
B|------------------------------------------------------------------------------|
G|------------------------------------------------------------------------------|
D|-3-3-3--6-6-6-6--6-6-6--5-5-5--5-5-5--3-3-3-----------------------------------|
A|-3-3-3-----------6-6-6----------5-5-5-----------------------------------------|
D|-3-3-3-----------6-6-6----------5-5-5-----------------------------------------| 4x

e|---------------------------------------------------------------------------------|
B|---------------------------------------------------------------------------------|
G|---------------------------------------------------------------------------------|
D|-3---------6----------5--------------repeat this line 8x and end on--3-----------|
A|-3---------6----------5------------------------------------------3---------------|
D|-3---/20/--6----/20/--5-----/20/---------------------------------3---------------| 4x



************************************

| /   slide up
| \   slide down
| h   hammer-on
| p   pull-off
| ~   vibrato
| +   harmonic
| x   Mute note
| b   Bend
| pb  Pre-bend
| br  Bend release
| pbr Pre-bend release
| brb Bend release bend

************************************
Tap to rate this tab
# A B C D E F G H I J K L M N O P Q R S T U V W X Y Z