Song name
# A B C D E F G H I J K L M N O P Q R S T U V W X Y Z

Botch - Japam tab

BOTCH
"Japam"

Tabbed by Shmeegle

/// = Tremelo Picking
~~ = Notes Ring

A
6/8 time
    Bb5           F5
E/--------0-1-3------2-2-0-------|
B/--------0-0-0------0-0-0-------|
G/---3---------------------------|
D/---3------------3--------------|
A/---1------------3--------------|
D/----------------3--------------|

"six Chevvies in the front yard..."

B
5/4 time
E/---7---7---9--10-10--------|
B/---0---0---0--0---0--------|
G/---------------------------|
D/---------------------------|
A/---------------------------|
D/---------------------------|
/
"it's like you never knew..."/

C
6/8 time
E/------2-2-0----|
B/------0-0-0----|
G/---------------|
D/---3-----------|
A/---3-----------|
D/---3-----------|

"pop another top..."

B
"It's like you never knew..."

A
A
"Light the Propane..."

D
8/8 time
E/----------------------------------------------------|
B/----------------------------------------------------|
G/----------------------------------------------------|
D/------------6-6-6-----------5-5-5-------3-3---------|
A/----------------------------------------------------|
D/---3-3-3-----------6-6-6-----------5-5--------------|

"Boiling the Medicine..."

     E5
E/---0~~--------------//////////////////-|
B/---5~~--------------16b----------------|
G/---4~~-----7---9-----------------------|
D/---2~~---------------------------------|
A/---2~~-----5---7-----------------------|
D/---2~~---------------------------------|

"Taste it..."

D
"Boiling the medicine...."
"so take this..."

E/----//////////////////////////////////////////
B/---16b----------------------------------------|
G/----------------------------------------------|

"For me..."

E
6/4 time
E/----------------------------|
B/----------------------------|
G/----------------------------|
D/------6-------5------3------|
A/----------------------------|
D/---3------6-------5---------|

F
9/8 time
E/-----------------------------------------------------------|
B/-----------------------------------------------------------|
G/-----------------------------------------------------------|
D/------------6-6-6-----------5-5-5----------3-3-3-----------|
A/-----------------------------------------------------------|
D/---3-3-3----------6-6-6-----------5-5-5--------------------|

"Give your daddy a hand..."

G
6/8 time
     F5     Ab5      G5
E/------------------------------------|
B/------------------------------------|
G/------------------------------------|
D/---3-------6-------5----------------|
A/---3-------6-------5----------------|
D/---3/18---\6/18---\5/18--\----------|

"open the batteries..."

F
"Give your daddy a hand..."

G
"Precious Lithium..."

Beast of a tune. And a great band.

Enjoy
Tap to rate this tab
# A B C D E F G H I J K L M N O P Q R S T U V W X Y Z