Song name
# A B C D E F G H I J K L M N O P Q R S T U V W X Y Z

Botch - Thank God For Worker Bees tab

This an awesome song off of Botch's 'American Nervoso.' I'm not 100% sure this is 
correct, but I'm giving it my best shot.

Tuning: Drop D

For the beginning just hit some harmonics high up on the neck, and then when the song 
kicks in.....

e:-------------------------------------------------------|
B:-------------------------------------------------------|
G:-----15-----15-----14--------15-----15-----14----------|
D:-----x------x------x---------x------x------x-----------|
A:-0-0-13-0-0-13-0-0-12----0-0-13-0-0-13-0-0-12----------|
D:-0-0----0-0----0-0-------0-0----0-0----0-0-------------|

e:-------------------------------------------------|
B:----(0)---(0)------0----(0)---(0)-----0----------|
G:-----3-----3-------2-----3-----3------2----------|
D:-----x-----x-------x-----x-----x------x----------|
A:-0-0-1-0-0-1--0-0-(0)-00-1-0-0-1--0-0-(0)--------|
D:-0-0---0-0----0-0-----00---0-0----0-0------------|

Then play this during 'So now I'm the human' 'Now I'm the human shield'

e:----------------------------------------------------------------|
B:----------------------------------------------------------------|
G:----------------------------------------------------------------|
D:-0-0-1p0-0-1p0-0-1p0-0-1p0-0-1p0--------------------------------|
A:-0-0-1p0-0-1p0-0-1p0-0-1p0-0-1p0-------------------6-5-8-7-8s12-|
D:-0-0-1p0-0-1p0-0-1p0-0-1p0-0-1p0-3b-3b-3b-3b-3b-----------------|
                                        1st time        2nd time



'And that's why we dine on your design'

e:----------------(0)------------------------|
B:----------------(0)------------------------|
G:----------------(0)------------------------|
D:-----------------0-------------------------|
A:-----------------0-------------------------|
D:-1-3-1-2-1-4-1-2-0-------------------------|

'I like the look on your face'

e:---------------------------------(0)---------|
B:---------------------------------(0)---------|
G:---------------------------------(0)---------|
D:-1--3--1--2--1--4--1--2-----------0----------|
A:-1--3--1--2--1--4--1--2--5b/1-----0----------|
D:-1--3--1--2--1--4--1--2-----------0----------|
           pm.            1st time  2nd time

Play this really freaking fast

e:-------------------------------------------|
B:-------------------------------------------|
G:-------------------------------------------|
D:-1-1-1-1-1-1--1-1-1-1-1-1------------------|
A:-1-1-1-1-1-1--1-1-1-1-1-1------------------|
D:-1-1-1-1-1-1--1-1-1-1-1-1------------------|
       pm.          pm.

Then there's the ending. I'm honestly not sure at all on this part though.

e:-------------------------------------------|
B:-------11-----------11---------------------|
G:-------14-----------14---------------------|
D:-------------------------------------------|
A:-0-0-0--------0-0-0------------------------|
D:-0-0-0--------0-0-0------------------------|

And that wraps up 'Thank God for Worker Bees.' I know the tab isn't perfect, but 
hopefully it gave your somewhat of a grasp on it.
Tap to rate this tab
# A B C D E F G H I J K L M N O P Q R S T U V W X Y Z