Song name
# A B C D E F G H I J K L M N O P Q R S T U V W X Y Z

Botch - Dead For A Minute tab

This is a tab for the awesome song 'Dead For A Minute' by Botch off of the album 
'American Nervoso'

Tuning:Drop D (DADGBe)

The song starts off with the bass, and then the guitar kicks in with a really creepy 
sound. I'm not 100% sure about this, but it'll do. The intro repeats a couple times

e:------------------------------------------------|
B:------------------------------------------------|
G:-----7------------5-----------------------------|
D:-0-----6-------0----5---------------------------|
A:-----------0h6----------------------------------|
D:------------------------------------------------|

'These mirrors break' play this a couple times

e:-------------------------------------------------|
B:-------------------------------------------------|
G:---------7-7-7-7-7--------0----------------------|
D:-0--0-0--6-6-6-6-6------0---0--------------------|
A:-0--0-0--5-5-5-5-5--0h6--------------------------|
D:-0--0-0------------------------------------------|

'All I see are opaque expressions'

e:-------------------------------------------------|
B:-------------------------------------------------|
G:-------------------------------------------------|
D:-2-1--0-0-0--------------------------------------|
A:-2-1--0-0-0--------------------------------------|
D:-2-1--0-0-0--------------------------------------|
   pm.   pm.

You'll play 'These mirrors break' part again then this. Dave plays some harmonics here 
it's really chaotic and messy,so they'll be marked with this *


e:-------------------------------------------------|
B:-------------------------------------------------|
G:-------------------------------------------------|
D:-2-1--0-0-*2-*2----------------------------------|
A:-2-1--0-0-*2-*2----------------------------------|
D:-2-1--0-0-*2-*2----------------------------------|

When 'And now they fade' comes in I'm pretty sure you just play the intro again until it 
goes crazy.

'Fade!!!'

e:-------------------------------------------------|
B:-------------------------------------------------|
G:-------------------------------------------------|
D:-0-0-0-0-0-0-0-0-0-------------------------------|
A:-0-0-0-0-0-0-0-0-0-------------------------------|
D:-0-0-0-0-0-0-0-0-0-------------------------------|
         pm.

'Until they've faded away!!' This is where it gets crazy if you haven't noticed

e:-------------------------------------------------|
B:-------------------------------------------------|
G:-------------------------------------------------|
D:-2-1--0-0-*2-*2----------------------------------|
A:-2-1--0-0-*2-*2----------------------------------|
D:-2-1--0-0-*2-*2----------------------------------|

After all that chaos you end with this

e:-------------------------------------------------|
B:-------------------------------------------------|
G:-------------------------------------------------|
D:-2-1--0-0-0--------------------------------------|
A:-2-1--0-0-0--------------------------------------|
D:-2-1--0-0-0--------------------------------------|
   pm.   pm.

And that's my take on Botch's 'Dead For A Minute' if you have any corrections please 
post them in the comments for all to see.
Tap to rate this tab
# A B C D E F G H I J K L M N O P Q R S T U V W X Y Z