Song name
# A B C D E F G H I J K L M N O P Q R S T U V W X Y Z

Botch - Framce tab

Song: Framce
Band: Botch
Album: An Anthology Of Dead Ends

Tuning: Dropped D (which is crazy, for how heavy this band is)

There is some pitch shifting going on in the intro riff, as well as when it 
is brought back around 0:40, so I'll just be sticking with the assumed notes 
that I'm hearing, which also start the beginning of the verse riff (0:16, 
again at 0:55).

\ = slide down
/ = slide up
h = hammer on
p = pull off
v = vibrato

(0:00 - 0:16)
 Guitar I         Guitar II
|----------------|--15-15\---15-15\--|
|----------------|-------------------|
|----------------|--11-11\---11-11\--|
|----------------|-------------------|
|--4-4\---4-4\---|-------------------|
|--4-4\---4-4\---|-------------------|

(0:17 - 0:38)
 The cycle is this, thrice.  End with this.
|--15-15-------------------|-------------------|
|--------------------------|-------------------|
|--11-11--11-11\6p0h6p0----|-------------------|
|--------------------------|--5h6-0------------|
|--------------------------|--------5h6-0--2/--|
|--------------------------|---------------3/--|

(0:39 - 0:54) watch for the shift in phrasing.
 Guitar I         Guitar II
|----------------|--15-15\---15-15\--|
|----------------|-------------------|
|----------------|--11-11\---11-11\--|
|----------------|-------------------|
|--4-4\---4-4\---|-------------------|
|--4-4\---4-4\---|-------------------|

(0:55 - 1:16)
 The cycle is this, thrice.  End with this.
|--15-15-------------------|-------------------|
|--------------------------|-------------------|
|--11-11--11-11\6p0h6p0----|-------------------|
|--------------------------|--5h6-0------------|
|--------------------------|--------5h6-0--2/--|
|--------------------------|---------------3/--|

On the last cycle of the above riff, end with:

|----------|
|----------|
|----------|
|----------|
|--2---5---|
|--2---5---|

(1:19 - 1:45)
|--------------------------------------|
|--------------------------------------|
|--------------------------------------|
|----5--------5--------5--------5------|
|--4---4-4--4---4-4--4---4-4--4---4-4--|
|--4---4-4--4---4-4--4---4-4--4---4-4--|

|--------------------------------------|
|--------------------------------------|
|--------------------------------------|
|----5---5----5---5----5---5----5---5--|
|--3---3----3---3----3---3----3---3----|
|--3---3----3---3----3---3----3---3----|

(1:46 - 2:10)
Some phasing is used, same rhythm as the previous riff.
|-------14------------14------------14------------14----------|
|-------------------------------------------------------------|
|--/11-----11-11v-11-----11-11v-11-----11-11v-11-----11-11v/--|
|-------------------------------------------------------------|
|-------------------------------------------------------------|
|-------------------------------------------------------------|

|-------18------------18------------18------------18----------|
|-------------------------------------------------------------|
|--/15-----15-15v-15-----15-15v-15-----15-15v-15-----15-15v\--|
|-------------------------------------------------------------|
|-------------------------------------------------------------|
|-------------------------------------------------------------|

(2:11 - 2:44)
If it helps, just count 5, 3, 3, 5. Cycles 3 times.
|--------------------------------------------------|
|--------------------------------------------------|
|--------------------------------------------------|
|--5--5--5--5--5--5--5--5--5--5--5--5--5--5--5--5--|
|--4--4--4--4--4--3--3--3--4--4--4--3--3--3--3--3--|
|--4--4--4--4--4--3--3--3--4--4--4--3--3--3--3--3--|

(2:45 - end)
 First cycle                         Second cycle
|----------------------------------|-------------------------------------|
|---------------------------NOISE--|-------------------------------------|
|---------------------------*read--|-------------------------------------|
|------17v-----17v-----17v--below*-|------17v------17v------17v------5v--|
|--4-/------4/------4/-------------|--4-/------4-/------4-/------4-/-----|
|--4-/-17v--4/-17v--4/-17v---------|--4-/-17v--4-/-17v--4-/-17v--4-/-5v--|
      
The above riff (first ^ cycle) has some noisecore influence.
The pitch shifting keeps me from being able to tab it out completely.
I apologize. Look in my profile for more Botch tabs.
Tap to rate this tab
# A B C D E F G H I J K L M N O P Q R S T U V W X Y Z