Song name
# A B C D E F G H I J K L M N O P Q R S T U V W X Y Z

Botch - C Thomas Howell As The Soul Man tab

Botch, "We Are The Romans"
Tuning: Drop D
Kallan Stone

This is only a tab for one guitar.

|--------------|-------------------13p0-13p0-13p0--|
|--------------|---------3/9p0--12-----------------|
|--------------|-----3-----------------------------|
|--------------|---2---2---------------------------|
|---------1p0--|-----------------------------------|
|--2-2-2-------|-----------------------------------|

|----------------------------------------------------------|
|---------5------3------1------5------3------11-11--12-12--|
|--3------8------6------4--3---8------6------14-14--15-15--|
|--3-2-------7------3------3------7------3-----------------|
|--1-2--0----7-0----3-0----1-0----7-0----3-0---------------|
|----2--0----7-0----3-0------0----7-0----3-0---------------| 

|---------|---------|-------------------|
|--11-11--|--12-12--|--/11-11\-/11-11\--|
|--14-14--|--15-15--|--/14-14\-/14-14\--|
|---------|---------|-------------------|
|---------|---------|-------------------|
|---------|---------|-------------------|

|--------------|-------------------13p0-13p0-13p0--|
|--------------|---------3/9p0--12-----------------|
|--------------|-----3-----------------------------|
|--------------|---2---2---------------------------|
|---------1p0--|-----------------------------------|
|--2-2-2-------|-----------------------------------|

|--12p0-x32-|--13-0-13-0-12h13-0-19--|--17p0-x4-19p0-x4-15p0-x8--|
|-----------|------------------------|---------------------------|
|-----------|------------------------|---------------------------|
|-----------|------------------------|---------------------------|
|-----------|------------------------|---------------------------|
|-----------|------------------------|---------------------------|

|----------------------|-----------------|
|----------------------|-----------------|
|----------------------|-----------------|
|--10--0--2--2222------|--5--0--2--2222--|
|--10--0--2------------|--5--0--2--------|
|--10--0--2--2222(TP)--|--5--0--2--2222--|
Tap to rate this tab
 
# A B C D E F G H I J K L M N O P Q R S T U V W X Y Z