Song name
# A B C D E F G H I J K L M N O P Q R S T U V W X Y Z

Botch - Spaim tab

Drop C tuning (everything a tone down, top string 2 tones down)
h = harmonics

D----------------------------------------20------|
A----------------19------------------------------|
F--------------17--17---------------12/18--------|
C-------18h--------------------------------------|
G------------------------------------------------|
C--0/17------------------2/3\2/3-----------------|
                    (just bend up here)


Then play this:

D----------------------------------------20------|
A----------------19------------------------------|
F--------------17--17---------------12/18--------|
C-------19h--------------------------------------|
G------------------------------------------------|
C--0/17------------------2/3\2/3-----------------|
                    (just bend up here)

please let me know what you think.... especially if I've made a mistake...
abespalov@hotmail.com
Tap to rate this tab
 
# A B C D E F G H I J K L M N O P Q R S T U V W X Y Z